  0
SECTION
  2
HEADER
  9
$ACADVER
  1
AC1015
  9
$ACADMAINTVER
 70
     6
  9
$DWGCODEPAGE
  3
ANSI_1254
  9
$INSBASE
 10
0.0
 20
0.0
 30
0.0
  9
$EXTMIN
 10
0.0
 20
0.0
 30
0.0
  9
$EXTMAX
 10
279.4
 20
215.9
 30
0.0
  9
$LIMMIN
 10
0.0
 20
0.0
  9
$LIMMAX
 10
279.4
 20
215.9
  9
$ORTHOMODE
 70
     0
  9
$REGENMODE
 70
     1
  9
$FILLMODE
 70
     1
  9
$QTEXTMODE
 70
     0
  9
$MIRRTEXT
 70
     1
  9
$LTSCALE
 40
1.0
  9
$ATTMODE
 70
     1
  9
$TEXTSIZE
 40
3.5
  9
$TRACEWID
 40
1.0
  9
$TEXTSTYLE
  7
Standard
  9
$CLAYER
  8
0
  9
$CELTYPE
  6
ByLayer
  9
$CECOLOR
 62
   256
  9
$CELTSCALE
 40
1.0
  9
$DISPSILH
 70
     0
  9
$DIMSCALE
 40
1.0
  9
$DIMASZ
 40
3.5
  9
$DIMEXO
 40
1.0
  9
$DIMDLI
 40
3.75
  9
$DIMRND
 40
0.0
  9
$DIMDLE
 40
0.0
  9
$DIMEXE
 40
1.0
  9
$DIMTP
 40
0.0
  9
$DIMTM
 40
0.0
  9
$DIMTXT
 40
3.5
  9
$DIMCEN
 40
2.5
  9
$DIMTSZ
 40
0.0
  9
$DIMTOL
 70
     0
  9
$DIMLIM
 70
     0
  9
$DIMTIH
 70
     1
  9
$DIMTOH
 70
     1
  9
$DIMSE1
 70
     0
  9
$DIMSE2
 70
     0
  9
$DIMTAD
 70
     1
  9
$DIMZIN
 70
     0
  9
$DIMBLK
  1

  9
$DIMASO
 70
     1
  9
$DIMSHO
 70
     1
  9
$DIMPOST
  1

  9
$DIMAPOST
  1

  9
$DIMALT
 70
     0
  9
$DIMALTD
 70
     3
  9
$DIMALTF
 40
0.0393700787
  9
$DIMLFAC
 40
1.0
  9
$DIMTOFL
 70
     1
  9
$DIMTVP
 40
0.0
  9
$DIMTIX
 70
     0
  9
$DIMSOXD
 70
     0
  9
$DIMSAH
 70
     0
  9
$DIMBLK1
  1

  9
$DIMBLK2
  1

  9
$DIMSTYLE
  2
ISO-25
  9
$DIMCLRD
 70
     0
  9
$DIMCLRE
 70
     0
  9
$DIMCLRT
 70
     0
  9
$DIMTFAC
 40
1.0
  9
$DIMGAP
 40
1.524
  9
$DIMJUST
 70
     0
  9
$DIMSD1
 70
     0
  9
$DIMSD2
 70
     0
  9
$DIMTOLJ
 70
     0
  9
$DIMTZIN
 70
     0
  9
$DIMALTZ
 70
     0
  9
$DIMALTTZ
 70
     0
  9
$DIMUPT
 70
     0
  9
$DIMDEC
 70
     2
  9
$DIMTDEC
 70
     2
  9
$DIMALTU
 70
     2
  9
$DIMALTTD
 70
     3
  9
$DIMTXSTY
  7
Standard
  9
$DIMAUNIT
 70
     0
  9
$DIMADEC
 70
     2
  9
$DIMALTRND
 40
0.0
  9
$DIMAZIN
 70
     0
  9
$DIMDSEP
 70
    44
  9
$DIMATFIT
 70
     3
  9
$DIMFRAC
 70
     0
  9
$DIMLDRBLK
  1

  9
$DIMLUNIT
 70
     2
  9
$DIMLWD
 70
    -2
  9
$DIMLWE
 70
    -2
  9
$DIMTMOVE
 70
     0
  9
$LUNITS
 70
     2
  9
$LUPREC
 70
     2
  9
$SKETCHINC
 40
1.0
  9
$FILLETRAD
 40
10.0
  9
$AUNITS
 70
     0
  9
$AUPREC
 70
     2
  9
$MENU
  1
.
  9
$ELEVATION
 40
0.0
  9
$PELEVATION
 40
0.0
  9
$THICKNESS
 40
0.0
  9
$LIMCHECK
 70
     0
  9
$CHAMFERA
 40
0.0
  9
$CHAMFERB
 40
0.0
  9
$CHAMFERC
 40
0.0
  9
$CHAMFERD
 40
0.0
  9
$SKPOLY
 70
     0
  9
$TDCREATE
 40
2458985.718227129
  9
$TDUCREATE
 40
2458985.593227129
  9
$TDUPDATE
 40
2458985.718227477
  9
$TDUUPDATE
 40
2458985.593227477
  9
$TDINDWG
 40
0.0000000116
  9
$TDUSRTIMER
 40
0.0000000116
  9
$USRTIMER
 70
     1
  9
$ANGBASE
 50
0.0
  9
$ANGDIR
 70
     0
  9
$PDMODE
 70
     0
  9
$PDSIZE
 40
-1.0
  9
$PLINEWID
 40
0.0
  9
$SPLFRAME
 70
     0
  9
$SPLINETYPE
 70
     6
  9
$SPLINESEGS
 70
     8
  9
$HANDSEED
  5
E1
  9
$SURFTAB1
 70
     6
  9
$SURFTAB2
 70
     6
  9
$SURFTYPE
 70
     6
  9
$SURFU
 70
     6
  9
$SURFV
 70
     6
  9
$UCSBASE
  2

  9
$UCSNAME
  2

  9
$UCSORG
 10
0.0
 20
0.0
 30
0.0
  9
$UCSXDIR
 10
1.0
 20
0.0
 30
0.0
  9
$UCSYDIR
 10
0.0
 20
1.0
 30
0.0
  9
$UCSORTHOREF
  2

  9
$UCSORTHOVIEW
 70
     0
  9
$UCSORGTOP
 10
0.0
 20
0.0
 30
0.0
  9
$UCSORGBOTTOM
 10
0.0
 20
0.0
 30
0.0
  9
$UCSORGLEFT
 10
0.0
 20
0.0
 30
0.0
  9
$UCSORGRIGHT
 10
0.0
 20
0.0
 30
0.0
  9
$UCSORGFRONT
 10
0.0
 20
0.0
 30
0.0
  9
$UCSORGBACK
 10
0.0
 20
0.0
 30
0.0
  9
$PUCSBASE
  2

  9
$PUCSNAME
  2

  9
$PUCSORG
 10
0.0
 20
0.0
 30
0.0
  9
$PUCSXDIR
 10
1.0
 20
0.0
 30
0.0
  9
$PUCSYDIR
 10
0.0
 20
1.0
 30
0.0
  9
$PUCSORTHOREF
  2

  9
$PUCSORTHOVIEW
 70
     0
  9
$PUCSORGTOP
 10
0.0
 20
0.0
 30
0.0
  9
$PUCSORGBOTTOM
 10
0.0
 20
0.0
 30
0.0
  9
$PUCSORGLEFT
 10
0.0
 20
0.0
 30
0.0
  9
$PUCSORGRIGHT
 10
0.0
 20
0.0
 30
0.0
  9
$PUCSORGFRONT
 10
0.0
 20
0.0
 30
0.0
  9
$PUCSORGBACK
 10
0.0
 20
0.0
 30
0.0
  9
$USERI1
 70
     0
  9
$USERI2
 70
     0
  9
$USERI3
 70
     0
  9
$USERI4
 70
     0
  9
$USERI5
 70
     0
  9
$USERR1
 40
0.0
  9
$USERR2
 40
0.0
  9
$USERR3
 40
0.0
  9
$USERR4
 40
0.0
  9
$USERR5
 40
0.0
  9
$WORLDVIEW
 70
     1
  9
$SHADEDGE
 70
     3
  9
$SHADEDIF
 70
    70
  9
$TILEMODE
 70
     1
  9
$MAXACTVP
 70
    64
  9
$PINSBASE
 10
0.0
 20
0.0
 30
0.0
  9
$PLIMCHECK
 70
     0
  9
$PEXTMIN
 10
1.0000000000E+20
 20
1.0000000000E+20
 30
1.0000000000E+20
  9
$PEXTMAX
 10
-1.0000000000E+20
 20
-1.0000000000E+20
 30
-1.0000000000E+20
  9
$PLIMMIN
 10
0.0
 20
0.0
  9
$PLIMMAX
 10
420.0
 20
297.0
  9
$UNITMODE
 70
     0
  9
$VISRETAIN
 70
     1
  9
$PLINEGEN
 70
     0
  9
$PSLTSCALE
 70
     1
  9
$TREEDEPTH
 70
  3020
  9
$CMLSTYLE
  2
Standard
  9
$CMLJUST
 70
     0
  9
$CMLSCALE
 40
20.0
  9
$PROXYGRAPHICS
 70
     1
  9
$MEASUREMENT
 70
     1
  9
$CELWEIGHT
370
    -1
  9
$ENDCAPS
280
     0
  9
$JOINSTYLE
280
     0
  9
$LWDISPLAY
290
     1
  9
$INSUNITS
 70
     4
  9
$HYPERLINKBASE
  1

  9
$STYLESHEET
  1

  9
$XEDIT
290
     1
  9
$CEPSNTYPE
380
     0
  9
$PSTYLEMODE
290
     1
  9
$FINGERPRINTGUID
  2
{993f1606-23d3-437a-a671-fd28089c27ac}
  9
$VERSIONGUID
  2
{FAEB1C32-E019-11D5-929B-00C0DF256EC4}
  9
$EXTNAMES
290
     1
  9
$PSVPSCALE
 40
0.0
  9
$OLESTARTUP
290
     0
  0
ENDSEC
  0
SECTION
  2
CLASSES
  0
CLASS
  1
ACDBDICTIONARYWDFLT
  2
AcDbDictionaryWithDefault
  3
ObjectDBX Classes
 90
        0
280
     0
281
     0
  0
CLASS
  1
VISUALSTYLE
  2
AcDbVisualStyle
  3
ObjectDBX Classes
 90
     4095
280
     0
281
     0
  0
CLASS
  1
MATERIAL
  2
AcDbMaterial
  3
ObjectDBX Classes
 90
     1153
280
     0
281
     0
  0
CLASS
  1
SCALE
  2
AcDbScale
  3
ObjectDBX Classes
 90
     1153
280
     0
281
     0
  0
CLASS
  1
TABLESTYLE
  2
AcDbTableStyle
  3
ObjectDBX Classes
 90
     4095
280
     0
281
     0
  0
CLASS
  1
MLEADERSTYLE
  2
AcDbMLeaderStyle
  3
ACDB_MLEADERSTYLE_CLASS
 90
     4095
280
     0
281
     0
  0
CLASS
  1
SUN
  2
AcDbSun
  3
SCENEOE
 90
     1153
280
     0
281
     0
  0
CLASS
  1
ACDBPLACEHOLDER
  2
AcDbPlaceHolder
  3
ObjectDBX Classes
 90
        0
280
     0
281
     0
  0
CLASS
  1
LAYOUT
  2
AcDbLayout
  3
ObjectDBX Classes
 90
        0
280
     0
281
     0
  0
ENDSEC
  0
SECTION
  2
TABLES
  0
TABLE
  2
VPORT
  5
8
330
0
100
AcDbSymbolTable
 70
     1
  0
VPORT
  5
29
330
8
100
AcDbSymbolTableRecord
100
AcDbViewportTableRecord
  2
*Active
 70
     0
 10
0.0
 20
0.0
 11
1.0
 21
1.0
 12
139.7
 22
107.95
 13
0.0
 23
0.0
 14
10.0
 24
10.0
 15
10.0
 25
10.0
 16
0.0
 26
0.0
 36
1.0
 17
0.0
 27
0.0
 37
0.0
 40
215.9
 41
1.2941176471
 42
50.0
 43
0.0
 44
0.0
 50
0.0
 51
0.0
 71
     0
 72
  2000
 73
     1
 74
     3
 75
     0
 76
     0
 77
     0
 78
     0
281
     0
 65
     1
110
0.0
120
0.0
130
0.0
111
1.0
121
0.0
131
0.0
112
0.0
122
1.0
132
0.0
 79
     0
146
0.0
  0
ENDTAB
  0
TABLE
  2
LTYPE
  5
5
330
0
100
AcDbSymbolTable
 70
     6
  0
LTYPE
  5
14
330
5
100
AcDbSymbolTableRecord
100
AcDbLinetypeTableRecord
  2
ByBlock
 70
     0
  3

 72
    65
 73
     0
 40
0.0
  0
LTYPE
  5
15
330
5
100
AcDbSymbolTableRecord
100
AcDbLinetypeTableRecord
  2
ByLayer
 70
     0
  3

 72
    65
 73
     0
 40
0.0
  0
LTYPE
  5
16
330
5
100
AcDbSymbolTableRecord
100
AcDbLinetypeTableRecord
  2
Continuous
 70
     0
  3
Solid line
 72
    65
 73
     0
 40
0.0
  0
LTYPE
  5
6E
330
5
100
AcDbSymbolTableRecord
100
AcDbLinetypeTableRecord
  2
HIDDEN
 70
     0
  3
Hidden __ __ __ __ __ __ __ __ __ __ __ __ __ __
 72
    65
 73
     2
 40
1.905
 49
1.27
 74
     0
 49
-0.635
 74
     0
  0
LTYPE
  5
6F
330
5
100
AcDbSymbolTableRecord
100
AcDbLinetypeTableRecord
  2
PHANTOM
 70
     0
  3
Phantom ______  __  __  ______  __  __  ______
 72
    65
 73
     6
 40
12.7
 49
6.35
 74
     0
 49
-1.27
 74
     0
 49
1.27
 74
     0
 49
-1.27
 74
     0
 49
1.27
 74
     0
 49
-1.27
 74
     0
  0
LTYPE
  5
70
330
5
100
AcDbSymbolTableRecord
100
AcDbLinetypeTableRecord
  2
CENTER
 70
     0
  3
Center ____ _ ____ _ ____ _ ____ _ ____ _ ____
 72
    65
 73
     4
 40
10.16
 49
6.35
 74
     0
 49
-1.27
 74
     0
 49
1.27
 74
     0
 49
-1.27
 74
     0
  0
LTYPE
  5
71
330
5
100
AcDbSymbolTableRecord
100
AcDbLinetypeTableRecord
  2
CENTERX2
 70
     0
  3
Center (2x) ________  __  ________  __  _____
 72
    65
 73
     4
 40
20.32
 49
12.7
 74
     0
 49
-2.54
 74
     0
 49
2.54
 74
     0
 49
-2.54
 74
     0
  0
LTYPE
  5
72
330
5
100
AcDbSymbolTableRecord
100
AcDbLinetypeTableRecord
  2
DOT2
 70
     0
  3
Dot (.5x) ........................................
 72
    65
 73
     2
 40
0.635
 49
0.0
 74
     0
 49
-0.635
 74
     0
  0
ENDTAB
  0
TABLE
  2
LAYER
  5
2
330
0
100
AcDbSymbolTable
 70
    17
  0
LAYER
  5
10
330
2
100
AcDbSymbolTableRecord
100
AcDbLayerTableRecord
  2
0
 70
     0
 62
     7
  6
Continuous
370
    -3
390
F
  0
LAYER
  5
73
330
2
100
AcDbSymbolTableRecord
100
AcDbLayerTableRecord
  2
FORMAT
 70
     0
 62
     7
  6
Continuous
370
    -3
390
F
  0
LAYER
  5
74
330
2
100
AcDbSymbolTableRecord
100
AcDbLayerTableRecord
  2
YARDIMCI_GEOMETRI
 70
     0
 62
    -6
  6
Continuous
290
     0
370
    -3
390
F
  0
LAYER
  5
75
330
2
100
AcDbSymbolTableRecord
100
AcDbLayerTableRecord
  2
SAYFA_CERCEVESI
 70
     0
 62
     7
  6
Continuous
370
    25
390
F
  0
LAYER
  5
76
330
2
100
AcDbSymbolTableRecord
100
AcDbLayerTableRecord
  2
ANTET
 70
     0
 62
     7
  6
Continuous
370
    -3
390
F
  0
LAYER
  5
77
330
2
100
AcDbSymbolTableRecord
100
AcDbLayerTableRecord
  2
OLCU
 70
     0
 62
   150
  6
Continuous
370
    -3
390
F
  0
LAYER
  5
78
330
2
100
AcDbSymbolTableRecord
100
AcDbLayerTableRecord
  2
METIN
 70
     0
 62
    96
  6
Continuous
370
    -3
390
F
  0
LAYER
  5
79
330
2
100
AcDbSymbolTableRecord
100
AcDbLayerTableRecord
  2
BALON
 70
     0
 62
     5
  6
Continuous
370
    -3
390
F
  0
LAYER
  5
7A
330
2
100
AcDbSymbolTableRecord
100
AcDbLayerTableRecord
  2
VURGU
 70
     0
 62
     7
  6
Continuous
370
    -3
390
F
  0
LAYER
  5
7B
330
2
100
AcDbSymbolTableRecord
100
AcDbLayerTableRecord
  2
SILIK
 70
     0
 62
     7
  6
Continuous
370
    -3
390
F
  0
LAYER
  5
7C
330
2
100
AcDbSymbolTableRecord
100
AcDbLayerTableRecord
  2
MODEL
 70
     0
 62
     7
  6
Continuous
370
    -3
390
F
  0
LAYER
  5
7D
330
2
100
AcDbSymbolTableRecord
100
AcDbLayerTableRecord
  2
DETAYLANDıRMA
 70
     0
 62
   190
  6
Continuous
370
    -3
390
F
  0
LAYER
  5
7E
330
2
100
AcDbSymbolTableRecord
100
AcDbLayerTableRecord
  2
TOLERANS
 70
     0
 62
   230
  6
Continuous
370
    -3
390
F
  0
LAYER
  5
7F
330
2
100
AcDbSymbolTableRecord
100
AcDbLayerTableRecord
  2
MERKEZ_CIZGILERI
 70
     0
 62
    30
  6
Continuous
370
    -3
390
F
  0
LAYER
  5
80
330
2
100
AcDbSymbolTableRecord
100
AcDbLayerTableRecord
  2
KESIT-DETAY_CIZGILERI
 70
     0
 62
     7
  6
Continuous
370
    -3
390
F
  0
LAYER
  5
81
330
2
100
AcDbSymbolTableRecord
100
AcDbLayerTableRecord
  2
\U+041E\U+0421\U+0415\U+0412\U+042B\U+0415
 70
     0
 62
     7
  6
Continuous
370
    -3
390
F
  0
LAYER
  5
82
330
2
100
AcDbSymbolTableRecord
100
AcDbLayerTableRecord
  2
\U+0412\U+041E\U+0414\U+042F\U+041D\U+042B\U+0415_\U+0417\U+041D\U+0410\U+041A\U+0418
 70
     0
 62
    11
  6
Continuous
370
    -3
390
F
  0
ENDTAB
  0
TABLE
  2
STYLE
  5
3
330
0
100
AcDbSymbolTable
 70
     1
  0
STYLE
  5
11
330
3
100
AcDbSymbolTableRecord
100
AcDbTextStyleTableRecord
  2
Standard
 70
     0
 40
0.0
 41
1.0
 50
0.0
 71
     0
 42
3.5
  3
txt
  4

  0
ENDTAB
  0
TABLE
  2
VIEW
  5
6
330
0
100
AcDbSymbolTable
 70
     0
  0
ENDTAB
  0
TABLE
  2
UCS
  5
7
330
0
100
AcDbSymbolTable
 70
     0
  0
ENDTAB
  0
TABLE
  2
APPID
  5
9
330
0
100
AcDbSymbolTable
 70
     1
  0
APPID
  5
12
330
9
100
AcDbSymbolTableRecord
100
AcDbRegAppTableRecord
  2
ACAD
 70
     0
  0
ENDTAB
  0
TABLE
  2
DIMSTYLE
  5
A
330
0
100
AcDbSymbolTable
 70
     1
100
AcDbDimStyleTable
  0
DIMSTYLE
105
27
330
A
100
AcDbSymbolTableRecord
100
AcDbDimStyleTableRecord
  2
ISO-25
 70
     0
 41
2.5
 42
0.625
 43
3.75
 44
1.25
 73
     0
 74
     0
 77
     1
 78
     8
140
2.5
141
2.5
143
0.0393700787
147
0.625
171
     3
172
     1
178
     0
271
     2
272
     2
274
     3
278
    44
283
     0
284
     8
340
11
  0
ENDTAB
  0
TABLE
  2
BLOCK_RECORD
  5
1
330
0
100
AcDbSymbolTable
 70
     3
  0
BLOCK_RECORD
  5
1F
330
1
100
AcDbSymbolTableRecord
100
AcDbBlockTableRecord
  2
*Model_Space
340
22
  0
BLOCK_RECORD
  5
1B
330
1
100
AcDbSymbolTableRecord
100
AcDbBlockTableRecord
  2
*Paper_Space
340
1E
  0
BLOCK_RECORD
  5
23
330
1
100
AcDbSymbolTableRecord
100
AcDbBlockTableRecord
  2
*Paper_Space0
340
26
  0
BLOCK_RECORD
  5
B1
330
1
100
AcDbSymbolTableRecord
100
AcDbBlockTableRecord
  2
SW_CENTERMARKSYMBOL_0
340
0
102
{BLKREFS
331
BC
102
}
  0
BLOCK_RECORD
  5
C7
330
1
100
AcDbSymbolTableRecord
100
AcDbBlockTableRecord
  2
SW_CENTERMARKSYMBOL_1
340
0
102
{BLKREFS
331
D2
102
}
  0
ENDTAB
  0
ENDSEC
  0
SECTION
  2
BLOCKS
  0
BLOCK
  5
20
330
1F
100
AcDbEntity
  8
0
100
AcDbBlockBegin
  2
*Model_Space
 70
     0
 10
0.0
 20
0.0
 30
0.0
  3
*Model_Space
  1

  0
ENDBLK
  5
21
330
1F
100
AcDbEntity
  8
0
100
AcDbBlockEnd
  0
BLOCK
  5
1C
330
1B
100
AcDbEntity
 67
     1
  8
0
100
AcDbBlockBegin
  2
*Paper_Space
 70
     0
 10
0.0
 20
0.0
 30
0.0
  3
*Paper_Space
  1

  0
ENDBLK
  5
1D
330
1B
100
AcDbEntity
 67
     1
  8
0
100
AcDbBlockEnd
  0
BLOCK
  5
24
330
23
100
AcDbEntity
  8
0
100
AcDbBlockBegin
  2
*Paper_Space0
 70
     0
 10
0.0
 20
0.0
 30
0.0
  3
*Paper_Space0
  1

  0
ENDBLK
  5
25
330
23
100
AcDbEntity
  8
0
100
AcDbBlockEnd
  0
BLOCK
  5
B2
330
B1
100
AcDbEntity
  8
0
100
AcDbBlockBegin
  2
SW_CENTERMARKSYMBOL_0
 70
     0
 10
0.0
 20
0.0
 30
0.0
  3
SW_CENTERMARKSYMBOL_0
  1

  0
LINE
  5
B4
330
B1
100
AcDbEntity
  8
FORMAT
 62
     0
100
AcDbLine
 10
0.0
 20
0.0
 30
0.0
 11
0.0
 21
2.5
 31
0.0
  0
LINE
  5
B5
330
B1
100
AcDbEntity
  8
FORMAT
 62
     0
100
AcDbLine
 10
0.0
 20
0.0
 30
0.0
 11
-2.5
 21
0.0
 31
0.0
  0
LINE
  5
B6
330
B1
100
AcDbEntity
  8
FORMAT
 62
     0
100
AcDbLine
 10
0.0
 20
0.0
 30
0.0
 11
0.0
 21
-2.5
 31
0.0
  0
LINE
  5
B7
330
B1
100
AcDbEntity
  8
FORMAT
 62
     0
100
AcDbLine
 10
0.0
 20
0.0
 30
0.0
 11
2.5
 21
0.0
 31
0.0
  0
LINE
  5
B8
330
B1
100
AcDbEntity
  8
FORMAT
 62
     0
100
AcDbLine
 10
0.0
 20
5.0
 30
0.0
 11
0.0
 21
142.5
 31
0.0
  0
LINE
  5
B9
330
B1
100
AcDbEntity
  8
FORMAT
 62
     0
100
AcDbLine
 10
-5.0
 20
0.0
 30
0.0
 11
-142.5
 21
0.0
 31
0.0
  0
LINE
  5
BA
330
B1
100
AcDbEntity
  8
FORMAT
 62
     0
100
AcDbLine
 10
0.0
 20
-5.0
 30
0.0
 11
0.0
 21
-142.5
 31
0.0
  0
LINE
  5
BB
330
B1
100
AcDbEntity
  8
FORMAT
 62
     0
100
AcDbLine
 10
5.0
 20
0.0
 30
0.0
 11
142.5
 21
0.0
 31
0.0
  0
ENDBLK
  5
B3
330
B1
100
AcDbEntity
  8
0
100
AcDbBlockEnd
  0
BLOCK
  5
C8
330
C7
100
AcDbEntity
  8
0
100
AcDbBlockBegin
  2
SW_CENTERMARKSYMBOL_1
 70
     0
 10
0.0
 20
0.0
 30
0.0
  3
SW_CENTERMARKSYMBOL_1
  1

  0
LINE
  5
CA
330
C7
100
AcDbEntity
  8
FORMAT
 62
     0
100
AcDbLine
 10
0.0
 20
0.0
 30
0.0
 11
0.0
 21
2.5
 31
0.0
  0
LINE
  5
CB
330
C7
100
AcDbEntity
  8
FORMAT
 62
     0
100
AcDbLine
 10
0.0
 20
0.0
 30
0.0
 11
-2.5
 21
0.0
 31
0.0
  0
LINE
  5
CC
330
C7
100
AcDbEntity
  8
FORMAT
 62
     0
100
AcDbLine
 10
0.0
 20
0.0
 30
0.0
 11
0.0
 21
-2.5
 31
0.0
  0
LINE
  5
CD
330
C7
100
AcDbEntity
  8
FORMAT
 62
     0
100
AcDbLine
 10
0.0
 20
0.0
 30
0.0
 11
2.5
 21
0.0
 31
0.0
  0
LINE
  5
CE
330
C7
100
AcDbEntity
  8
FORMAT
 62
     0
100
AcDbLine
 10
0.0
 20
5.0
 30
0.0
 11
0.0
 21
142.5
 31
0.0
  0
LINE
  5
CF
330
C7
100
AcDbEntity
  8
FORMAT
 62
     0
100
AcDbLine
 10
-5.0
 20
0.0
 30
0.0
 11
-142.5
 21
0.0
 31
0.0
  0
LINE
  5
D0
330
C7
100
AcDbEntity
  8
FORMAT
 62
     0
100
AcDbLine
 10
0.0
 20
-5.0
 30
0.0
 11
0.0
 21
-142.5
 31
0.0
  0
LINE
  5
D1
330
C7
100
AcDbEntity
  8
FORMAT
 62
     0
100
AcDbLine
 10
5.0
 20
0.0
 30
0.0
 11
142.5
 21
0.0
 31
0.0
  0
ENDBLK
  5
C9
330
C7
100
AcDbEntity
  8
0
100
AcDbBlockEnd
  0
ENDSEC
  0
SECTION
  2
ENTITIES
  0
LINE
  5
83
330
1F
100
AcDbEntity
  8
0
  6
Continuous
 62
     7
370
    25
100
AcDbLine
 10
-22.1493344636
 20
93.4460788515
 30
0.0
 11
-22.1493344636
 21
-83.5640252087
 31
0.0
  0
LINE
  5
84
330
1F
100
AcDbEntity
  8
0
  6
Continuous
 62
     7
370
    25
100
AcDbLine
 10
257.8506667285
 20
-83.5640252087
 30
0.0
 11
257.8506667285
 21
93.4460788515
 31
0.0
  0
ARC
  5
85
330
1F
100
AcDbEntity
  8
0
  6
Continuous
 62
     7
370
    25
100
AcDbCircle
 10
257.8506661324
 20
93.4460760591
 30
0.0
 40
280.0000000000001
100
AcDbArc
 50
135.0
 51
180.0
  0
LINE
  5
86
330
1F
100
AcDbEntity
  8
0
  6
Continuous
 62
     7
370
    25
100
AcDbLine
 10
189.8557145266
 20
421.4309036281
 30
0.0
 11
59.8607670633
 21
291.4359747913
 31
0.0
  0
LINE
  5
87
330
1F
100
AcDbEntity
  8
0
  6
Continuous
 62
     7
370
    25
100
AcDbLine
 10
257.8506667285
 20
93.4460788515
 30
0.0
 11
387.8456104664
 21
223.4410225895
 31
0.0
  0
LINE
  5
88
330
1F
100
AcDbEntity
  8
0
  6
Continuous
 62
     7
370
    25
100
AcDbLine
 10
117.8506661324
 20
-83.5640252087
 30
0.0
 11
257.8506667285
 21
-83.5640252087
 31
0.0
  0
LINE
  5
89
330
1F
100
AcDbEntity
  8
0
  6
Continuous
 62
     7
370
    25
100
AcDbLine
 10
-22.1493344636
 20
-83.5640252087
 30
0.0
 11
117.8506661324
 21
-83.5640252087
 31
0.0
  0
LWPOLYLINE
  5
8A
330
1F
100
AcDbEntity
  8
0
  6
Continuous
 62
     7
370
    25
100
AcDbPolyline
 90
       33
 70
   128
 43
0.0
 10
288.8506699471
 20
322.4359631088
 10
293.8246030478
 20
317.4620449093
 10
298.7859744696
 20
312.5006734874
 10
303.7222374348
 20
307.5643956211
 10
308.6209494738
 20
302.6656984832
 10
313.4697128205
 20
297.8169202354
 10
318.2562787203
 20
293.0303692367
 10
322.9685772328
 20
288.3180558231
 10
327.5946874289
 20
283.6919605281
 10
332.1229118971
 20
279.1637360599
 10
336.5418512492
 20
274.7447967079
 10
340.8402998118
 20
270.4463481453
 10
345.0074244408
 20
266.2792086151
 10
349.0326900153
 20
262.2539579418
 10
352.9059339432
 20
258.3806991127
 10
356.6173661618
 20
254.6692668941
 10
360.1576287417
 20
251.1290192154
 10
363.5177362828
 20
247.7688967731
 10
366.6892547278
 20
244.5973932293
 10
369.6641374497
 20
241.6225254085
 10
372.4348593621
 20
238.8517736938
 10
374.9944616227
 20
236.2921714332
 10
377.3364473252
 20
233.9501857307
 10
379.4549156098
 20
231.8317174461
 10
381.3445020585
 20
229.9421309974
 10
383.0004681019
 20
228.2861947563
 10
384.4185818104
 20
226.8680810478
 10
385.5952669053
 20
225.6913661506
 10
386.5276027588
 20
224.7590600994
 10
387.2131753831
 20
224.0734874752
 10
387.6502860455
 20
223.6363768127
 10
387.837802258
 20
223.4488307979
 10
387.8456104664
 20
223.4410225895
  0
LWPOLYLINE
  5
8B
330
1F
100
AcDbEntity
  8
0
  6
Continuous
 62
     7
370
    25
100
AcDbPolyline
 90
       33
 70
   128
 43
0.0
 10
189.8557145266
 20
421.4309036281
 10
189.8635301857
 20
421.4230954197
 10
190.0510612993
 20
421.2355792072
 10
190.4881645112
 20
420.7984983471
 10
191.173744586
 20
420.1129257229
 10
192.1060580878
 20
419.1805898693
 10
193.2827580838
 20
418.0038749721
 10
194.7008717923
 20
416.5857612636
 10
196.3568229346
 20
414.9298250225
 10
198.2464093833
 20
413.0402385738
 10
200.3648776679
 20
410.9217702892
 10
202.706870821
 20
408.5797845867
 10
205.266465631
 20
406.0201823261
 10
208.0372024445
 20
403.2494306114
 10
211.0120851664
 20
400.2745627906
 10
214.1835887103
 20
397.1030592468
 10
217.5437111525
 20
393.7429368045
 10
221.0839588313
 20
390.2026891258
 10
224.7953910498
 20
386.4912569072
 10
228.6686349778
 20
382.6179980781
 10
232.6939080028
 20
378.5927474048
 10
236.8610326318
 20
374.4256078746
 10
241.159488645
 20
370.127159312
 10
245.5784130959
 20
365.70821996
 10
250.1066524653
 20
361.1799954918
 10
254.7327626614
 20
356.5538703945
 10
259.4450462727
 20
351.8415867832
 10
264.2316270737
 20
347.0550059822
 10
269.0803904204
 20
342.2062575367
 10
273.9790875582
 20
337.3075603988
 10
278.9153654246
 20
332.3712825325
 10
283.8767368464
 20
327.4099111107
 10
288.8506699471
 20
322.4359631088
  0
LINE
  5
8C
330
1F
100
AcDbEntity
  8
0
  6
Continuous
 62
     1
370
    25
100
AcDbLine
 10
-22.1493344636
 20
93.4460788515
 30
0.0
 11
257.8506667285
 21
93.4460788515
 31
0.0
  0
LWPOLYLINE
  5
8D
330
1F
100
AcDbEntity
  8
0
  6
Continuous
 62
     1
370
    25
100
AcDbPolyline
 90
       64
 70
   128
 43
0.0
 10
59.8607670633
 20
291.4359747913
 10
59.8920296995
 20
291.4047121551
 10
60.1420227556
 20
291.1547302749
 10
60.6413718431
 20
290.655362561
 10
61.3888215391
 20
289.9079203155
 10
62.3824793963
 20
288.9142512825
 10
63.6198345689
 20
287.6769184616
 10
65.0977689891
 20
286.1989616897
 10
66.8125424652
 20
284.4841956642
 10
68.7598224847
 20
282.5369119194
 10
70.9346953897
 20
280.3620576408
 10
73.3316626517
 20
277.9650866535
 10
75.9446706741
 20
275.3520786312
 10
78.7671219675
 20
272.5296198871
 10
81.7918788759
 20
269.5048629787
 10
85.0113120048
 20
266.2854373005
 10
88.4172778694
 20
262.8794490841
 10
92.0011803625
 20
259.2955708053
 10
95.7539614408
 20
255.5427729633
 10
99.6661439656
 20
251.6305923011
 10
103.7278428791
 20
247.5688933876
 10
107.928801526
 20
243.3679282215
 10
112.2584046914
 20
239.038336232
 10
116.7057173677
 20
234.591025069
 10
121.2595044287
 20
230.0372302082
 10
125.9082632257
 20
225.3884851482
 10
130.6402489661
 20
220.6565022018
 10
135.4435097544
 20
215.8532321003
 10
140.3059132515
 20
210.9908341911
 10
145.21517345
 20
206.0815572288
 10
150.158890721
 20
201.1378585842
 10
155.1245797543
 20
196.1721658256
 10
160.0996900468
 20
191.1970555332
 10
165.0716599195
 20
186.2250744846
 10
170.0279276936
 20
181.2687992599
 10
174.9559763937
 20
176.3407766369
 10
179.843348649
 20
171.4534043815
 10
184.6777100234
 20
166.6190206554
 10
189.4468415646
 20
161.8499040153
 10
194.1386956839
 20
157.158049896
 10
198.7414185075
 20
152.5553196218
 10
203.2433871297
 20
148.0533509996
 10
207.6332319646
 20
143.6635136154
 10
211.899866548
 20
139.3968790319
 10
216.0324949889
 20
135.2642505911
 10
220.0207013754
 20
131.2760442045
 10
223.854390171
 20
127.4423479583
 10
227.523890522
 20
123.7728476074
 10
231.0199264555
 20
120.2768116739
 10
234.3336764841
 20
116.9630616453
 10
237.4567587046
 20
113.8399868753
 10
240.3812829523
 20
110.9154551771
 10
243.0998731522
 20
108.1968724277
 10
245.6056524186
 20
105.6910931614
 10
247.8922952084
 20
103.4044503715
 10
249.9540198712
 20
101.3427257087
 10
251.7856259017
 20
99.5111196783
 10
253.3824790387
 20
97.9142516401
 10
254.7405559687
 20
96.5561896112
 10
255.8564145236
 20
95.4403310564
 10
256.7272532849
 20
94.569492295
 10
257.3508370785
 20
93.9458936002
 10
257.7256310849
 20
93.5711144951
 10
257.8506667285
 20
93.4460788515
  0
LINE
  5
8E
330
1F
100
AcDbEntity
  8
0
  6
Continuous
 62
     7
370
    25
100
AcDbLine
 10
-522.2661066078
 20
322.4359631088
 30
0.0
 11
-522.2661066078
 21
192.441034272
 31
0.0
  0
LINE
  5
8F
330
1F
100
AcDbEntity
  8
0
  6
Continuous
 62
     7
370
    25
100
AcDbLine
 10
-242.2661054157
 20
192.441034272
 30
0.0
 11
-242.2661054157
 21
322.4359631088
 31
0.0
  0
LINE
  5
90
330
1F
100
AcDbEntity
  8
0
  6
Continuous
 62
     7
370
    25
100
AcDbLine
 10
-522.2661066078
 20
192.441034272
 30
0.0
 11
-522.2661066078
 21
93.4460788515
 31
0.0
  0
LINE
  5
91
330
1F
100
AcDbEntity
  8
0
  6
Continuous
 62
     7
370
    25
100
AcDbLine
 10
-242.2661054157
 20
93.4460788515
 30
0.0
 11
-242.2661054157
 21
192.441034272
 31
0.0
  0
LINE
  5
92
330
1F
100
AcDbEntity
  8
0
  6
Continuous
 62
     7
370
    25
100
AcDbLine
 10
-522.2661066078
 20
93.4460788515
 30
0.0
 11
-522.2661066078
 21
-83.5640252087
 31
0.0
  0
LINE
  5
93
330
1F
100
AcDbEntity
  8
0
  6
Continuous
 62
     7
370
    25
100
AcDbLine
 10
-242.2661054157
 20
-83.5640252087
 30
0.0
 11
-242.2661054157
 21
93.4460788515
 31
0.0
  0
LWPOLYLINE
  5
94
330
1F
100
AcDbEntity
  8
0
  6
Continuous
 62
     7
370
    25
100
AcDbPolyline
 90
      126
 70
   128
 43
0.0
 10
-522.2661066078
 20
322.4359631088
 10
-522.0892745279
 20
317.4620449093
 10
-521.5592551254
 20
312.5006734874
 10
-520.6773448013
 20
307.5643956211
 10
-519.4458085322
 20
302.6656984832
 10
-517.8677457594
 20
297.8169202354
 10
-515.9471350931
 20
293.0303692367
 10
-513.688849213
 20
288.3180558231
 10
-511.0985654616
 20
283.6919605281
 10
-508.1828403496
 20
279.1637360599
 10
-504.9490425014
 20
274.7447967079
 10
-501.4053303026
 20
270.4463481453
 10
-497.5606668018
 20
266.2792086151
 10
-493.4247601055
 20
262.2539579418
 10
-489.0080559277
 20
258.3806991127
 10
-484.321715238
 20
254.6692668941
 10
-479.3775695585
 20
251.1290192154
 10
-474.1881135129
 20
247.7688967731
 10
-468.7664526724
 20
244.5973932293
 10
-463.1262812041
 20
241.6225254085
 10
-457.2818595194
 20
238.8517736938
 10
-451.2479323172
 20
236.2921714332
 10
-445.0397583865
 20
233.9501857307
 10
-438.6730062985
 20
231.8317174461
 10
-432.1637693071
 20
229.9421309974
 10
-425.5284833931
 20
228.2861947563
 10
-418.7839160883
 20
226.8680810478
 10
-411.9471012824
 20
225.6913661506
 10
-405.0353094213
 20
224.7590600994
 10
-398.0659990781
 20
224.0734874752
 10
-391.0567787685
 20
223.6363768127
 10
-384.0253515378
 20
223.4488307979
 10
-376.9894805015
 20
223.5113560703
 10
-369.9669380882
 20
223.8237738159
 10
-362.9754650616
 20
224.3853091743
 10
-356.0327216261
 20
225.1945018318
 10
-349.1562473797
 20
226.2493550327
 10
-342.3634077632
 20
227.5471567657
 10
-335.6713707768
 20
229.08468838
 10
-329.0970343374
 20
230.8580159691
 10
-322.6570057892
 20
232.8626691845
 10
-316.3675534748
 20
235.0936114338
 10
-310.2445694827
 20
237.5451802757
 10
-304.3035212182
 20
240.2111768272
 10
-298.5594067001
 20
243.0848955658
 10
-293.0267471098
 20
246.1590647247
 10
-287.7195122861
 20
249.4259058979
 10
-282.651113274
 20
252.877163842
 10
-277.8343427204
 20
256.5041660812
 10
-273.2813823246
 20
260.2977036979
 10
-269.0037283324
 20
264.2482101467
 10
-265.0121840858
 20
268.3457016494
 10
-261.3168302201
 20
272.579806998
 10
-257.9270023131
 20
276.9398867633
 10
-254.8512685322
 20
281.4148842838
 10
-252.0973998331
 20
285.9935044792
 10
-249.672340157
 20
290.6641840484
 10
-247.5822287821
 20
295.4151212719
 10
-245.8323407196
 20
300.2343058136
 10
-244.4271016144
 20
305.109578326
 10
-243.3700430416
 20
310.02863045
 10
-242.6638621115
 20
314.9790048149
 10
-242.310317161
 20
319.9482142475
 10
-242.310317161
 20
324.9237417724
 10
-242.6638621115
 20
329.892951205
 10
-243.3700430416
 20
334.8433255699
 10
-244.4271016144
 20
339.7623776939
 10
-245.8323407196
 20
344.6376502063
 10
-247.5822287821
 20
349.456834748
 10
-249.672340157
 20
354.2077719715
 10
-252.0973998331
 20
358.8784515407
 10
-254.8512685322
 20
363.4570717361
 10
-257.9270023131
 20
367.9320692566
 10
-261.3168302201
 20
372.2921192196
 10
-265.0121840858
 20
376.5262543705
 10
-269.0037283324
 20
380.6237458732
 10
-273.2813823246
 20
384.574252322
 10
-277.8343427204
 20
388.3677899387
 10
-282.651113274
 20
391.9947623756
 10
-287.7195122861
 20
395.446050122
 10
-293.0267471098
 20
398.7128912952
 10
-298.5594067001
 20
401.7870604541
 10
-304.3035212182
 20
404.6607791927
 10
-310.2445694827
 20
407.3267757442
 10
-316.3675534748
 20
409.7783445861
 10
-322.6570057892
 20
412.0092868354
 10
-329.0970343374
 20
414.0139400509
 10
-335.6713707768
 20
415.7872676399
 10
-342.3634077632
 20
417.3247992542
 10
-349.1562473797
 20
418.6226307895
 10
-356.0327216261
 20
419.6774541881
 10
-362.9754650616
 20
420.4866468456
 10
-369.9669380882
 20
421.048182204
 10
-376.9894805015
 20
421.3605701473
 10
-384.0253515378
 20
421.4230954197
 10
-391.0567787685
 20
421.2355792072
 10
-398.0659990781
 20
420.7984983471
 10
-405.0353094213
 20
420.1129257229
 10
-411.9471012824
 20
419.1805898693
 10
-418.7839160883
 20
418.0038749721
 10
-425.5284833931
 20
416.5857612636
 10
-432.1637693071
 20
414.9298250225
 10
-438.6730062985
 20
413.0402385738
 10
-445.0397583865
 20
410.9217702892
 10
-451.2479323172
 20
408.5797845867
 10
-457.2818595194
 20
406.0201823261
 10
-463.1262812041
 20
403.2494306114
 10
-468.7664526724
 20
400.2745627906
 10
-474.1881135129
 20
397.1030592468
 10
-479.3775695585
 20
393.7429368045
 10
-484.321715238
 20
390.2026891258
 10
-489.0080559277
 20
386.4912569072
 10
-493.4247601055
 20
382.6179980781
 10
-497.5606668018
 20
378.5927474048
 10
-501.4053303026
 20
374.4256078746
 10
-504.9490425014
 20
370.127159312
 10
-508.1828403496
 20
365.70821996
 10
-511.0985654616
 20
361.1799954918
 10
-513.688849213
 20
356.5538703945
 10
-515.9471350931
 20
351.8415867832
 10
-517.8677457594
 20
347.0550059822
 10
-519.4458085322
 20
342.2062575367
 10
-520.6773448013
 20
337.3075603988
 10
-521.5592551254
 20
332.3712825325
 10
-522.0892745279
 20
327.4099111107
 10
-522.2661066078
 20
322.4359631088
  0
LWPOLYLINE
  5
95
330
1F
100
AcDbEntity
  8
0
  6
Continuous
 62
     7
370
    25
100
AcDbPolyline
 90
      114
 70
   128
 43
0.0
 10
-496.8661087774
 20
322.4359631088
 10
-496.6889935755
 20
326.9394516494
 10
-496.1582067632
 20
331.4289927032
 10
-495.2753874683
 20
335.8907579925
 10
-494.0432626032
 20
340.3109192398
 10
-492.4656468653
 20
344.6758269813
 10
-490.5473980331
 20
348.9720105674
 10
-488.2944691204
 20
353.18614836
 10
-485.7138040685
 20
357.3052465465
 10
-482.8133973502
 20
361.3165795353
 10
-479.602197113
 20
365.2077197578
 10
-476.0901424312
 20
368.9666568782
 10
-472.2880738997
 20
372.5817977932
 10
-468.2077634358
 20
376.041907027
 10
-463.8618025207
 20
379.3363451507
 10
-459.2636394524
 20
382.4548899677
 10
-454.4274824881
 20
385.3879153278
 10
-449.3682774924
 20
388.1263911274
 10
-444.1016632342
 20
390.6617939022
 10
-438.6439192318
 20
392.9863154438
 10
-433.0119135999
 20
395.0927733925
 10
-427.2230546199
 20
396.9746708419
 10
-421.2952385866
 20
398.6261665371
 10
-415.2467827522
 20
400.0421344783
 10
-409.0963899367
 20
401.2182533291
 10
-402.863062846
 20
402.1508574035
 10
-396.566073338
 20
402.8370558765
 10
-390.2248832606
 20
403.2747625854
 10
-383.8590924139
 20
403.4625768211
 10
-377.4883778975
 20
403.3999621418
 10
-371.1324314796
 20
403.087067559
 10
-364.8108988278
 20
402.5249063518
 10
-358.5433176928
 20
401.7152070549
 10
-352.3490633093
 20
400.6604432609
 10
-346.2472799443
 20
399.3638634231
 10
-340.2568306052
 20
397.8295504596
 10
-334.3962299847
 20
396.0621833351
 10
-328.6835904442
 20
394.0672456768
 10
-323.1365698599
 20
391.8508767631
 10
-317.7723157429
 20
389.4199609306
 10
-312.6074168109
 20
386.7820083645
 10
-307.6578173064
 20
383.945184901
 10
-302.9388356232
 20
380.9182226207
 10
-298.4650450968
 20
377.7104794529
 10
-294.2502814554
 20
374.3319093731
 10
-290.307568314
 20
370.7929133918
 10
-286.6490948223
 20
367.1044587639
 10
-283.2861635112
 20
363.2779299762
 10
-280.2291828417
 20
359.325158551
 10
-277.4875852489
 20
355.2583932426
 10
-275.0698494934
 20
351.0901510265
 10
-272.9834559583
 20
346.8333363083
 10
-271.2348493957
 20
342.5011217144
 10
-269.8294314765
 20
338.1068884876
 10
-268.7715533399
 20
333.6641966846
 10
-268.0644783401
 20
329.1868149784
 10
-267.7103894972
 20
324.6885716465
 10
-267.7103894972
 20
320.1833843734
 10
-268.0644783401
 20
315.6851112392
 10
-268.7715533399
 20
311.207729533
 10
-269.8294314765
 20
306.7650675323
 10
-271.2348493957
 20
302.3708343055
 10
-272.9834559583
 20
298.0386197117
 10
-275.0698494934
 20
293.7818049934
 10
-277.4875852489
 20
289.6135627773
 10
-280.2291828417
 20
285.5467676666
 10
-283.2861635112
 20
281.5940260437
 10
-286.6490948223
 20
277.7674972561
 10
-290.307568314
 20
274.0790426281
 10
-294.2502814554
 20
270.5400466468
 10
-298.4650450968
 20
267.161476567
 10
-302.9388356232
 20
263.9537333992
 10
-307.6578173064
 20
260.9267711189
 10
-312.6074168109
 20
258.0899178531
 10
-317.7723157429
 20
255.451965287
 10
-323.1365698599
 20
253.0210792568
 10
-328.6835904442
 20
250.8047103431
 10
-334.3962299847
 20
248.8097726848
 10
-340.2568306052
 20
247.0424055603
 10
-346.2472799443
 20
245.5080627945
 10
-352.3490633093
 20
244.211512759
 10
-358.5433176928
 20
243.156748965
 10
-364.8108988278
 20
242.3470496681
 10
-371.1324314796
 20
241.7848586586
 10
-377.4883778975
 20
241.4719938781
 10
-383.8590924139
 20
241.4093791988
 10
-390.2248832606
 20
241.5971934345
 10
-396.566073338
 20
242.0348703411
 10
-402.863062846
 20
242.7210986164
 10
-409.0963899367
 20
243.6537026909
 10
-415.2467827522
 20
244.8297917392
 10
-421.2952385866
 20
246.2457894828
 10
-427.2230546199
 20
247.897285178
 10
-433.0119135999
 20
249.7791826275
 10
-438.6439192318
 20
251.8856405761
 10
-444.1016632342
 20
254.2101621177
 10
-449.3682774924
 20
256.7455648925
 10
-454.4274824881
 20
259.4840406921
 10
-459.2636394524
 20
262.4170660522
 10
-463.8618025207
 20
265.5356108692
 10
-468.2077634358
 20
268.8300489929
 10
-472.2880738997
 20
272.2901582267
 10
-476.0901424312
 20
275.9052693393
 10
-479.602197113
 20
279.6642362621
 10
-482.8133973502
 20
283.5553764846
 10
-485.7138040685
 20
287.5667094734
 10
-488.2944691204
 20
291.6858076599
 10
-490.5473980331
 20
295.8999454525
 10
-492.4656468653
 20
300.1961290386
 10
-494.0432626032
 20
304.5610367801
 10
-495.2753874683
 20
308.9811980274
 10
-496.1582067632
 20
313.4429633167
 10
-496.6889935755
 20
317.9325043705
 10
-496.8661087774
 20
322.4359631088
  0
LINE
  5
96
330
1F
100
AcDbEntity
  8
0
  6
Continuous
 62
     7
370
    25
100
AcDbLine
 10
-522.2661066078
 20
-83.5640252087
 30
0.0
 11
-242.2661054157
 21
-83.5640252087
 31
0.0
  0
LWPOLYLINE
  5
97
330
1F
100
AcDbEntity
  8
0
  6
Continuous
 62
     1
370
    25
100
AcDbPolyline
 90
       33
 70
   128
 43
0.0
 10
-382.2661060118
 20
93.4460788515
 10
-375.2319015772
 20
93.5711144951
 10
-368.215465846
 20
93.9458936002
 10
-361.2345232838
 20
94.569492295
 10
-354.3067089491
 20
95.4403310564
 10
-347.4495205306
 20
96.5561896112
 10
-340.6802843534
 20
97.9142516401
 10
-334.0160976373
 20
99.5111196783
 10
-327.4737912439
 20
101.3427257087
 10
-321.0698980116
 20
103.4044503715
 10
-314.8205894255
 20
105.6910931614
 10
-308.7416607165
 20
108.1968724277
 10
-302.84845263
 20
110.9154551771
 10
-297.1558663272
 20
113.8399868753
 10
-291.6782739782
 20
116.9630616453
 10
-286.429511311
 20
120.2768116739
 10
-281.4228403591
 20
123.7728476074
 10
-276.6709122085
 20
127.4423479583
 10
-272.1857222938
 20
131.2760442045
 10
-267.9786103987
 20
135.2642505911
 10
-264.0601936006
 20
139.3968790319
 10
-260.4403811716
 20
143.6635136154
 10
-257.1283000731
 20
148.0533509996
 10
-254.1323471092
 20
152.5553196218
 10
-251.4600473665
 20
157.158049896
 10
-249.1181957745
 20
161.8499040153
 10
-247.1126782917
 20
166.6190206554
 10
-245.4485613131
 20
171.4534043815
 10
-244.1300767683
 20
176.3407766369
 10
-243.1605178141
 20
181.2687992599
 10
-242.5423580431
 20
186.2250744846
 10
-242.2771620773
 20
191.1970555332
 10
-242.2661054157
 20
192.441034272
  0
LWPOLYLINE
  5
98
330
1F
100
AcDbEntity
  8
0
  6
Continuous
 62
     1
370
    25
100
AcDbPolyline
 90
       33
 70
   128
 43
0.0
 10
-522.2661066078
 20
192.441034272
 10
-522.2550499462
 20
191.1970555332
 10
-521.9898539805
 20
186.2250744846
 10
-521.3716942095
 20
181.2687992599
 10
-520.4021352553
 20
176.3407766369
 10
-519.0836507105
 20
171.4534043815
 10
-517.4195337319
 20
166.6190206554
 10
-515.4140162491
 20
161.8499040153
 10
-513.072164657
 20
157.158049896
 10
-510.3998649143
 20
152.5553196218
 10
-507.4039119505
 20
148.0533509996
 10
-504.091830852
 20
143.6635136154
 10
-500.472018423
 20
139.3968790319
 10
-496.5536016249
 20
135.2642505911
 10
-492.3464897298
 20
131.2760442045
 10
-487.8612998151
 20
127.4423479583
 10
-483.1093716644
 20
123.7728476074
 10
-478.1027007126
 20
120.2768116739
 10
-472.8539380454
 20
116.9630616453
 10
-467.3763456964
 20
113.8399868753
 10
-461.6837593936
 20
110.9154551771
 10
-455.7905513071
 20
108.1968724277
 10
-449.7116225981
 20
105.6910931614
 10
-443.462314012
 20
103.4044503715
 10
-437.0584207796
 20
101.3427257087
 10
-430.5161143862
 20
99.5111196783
 10
-423.8519276702
 20
97.9142516401
 10
-417.082691493
 20
96.5561896112
 10
-410.2255030744
 20
95.4403310564
 10
-403.2976887398
 20
94.569492295
 10
-396.3167461776
 20
93.9458936002
 10
-389.3003104464
 20
93.5711144951
 10
-382.2661060118
 20
93.4460788515
  0
LWPOLYLINE
  5
99
330
1F
100
AcDbEntity
  8
0
  6
Continuous
 62
     1
370
    25
100
AcDbPolyline
 90
       25
 70
   128
 43
0.0
 10
-450.7045167708
 20
257.4384986904
 10
-449.3682774924
 20
258.1314324882
 10
-444.1016632342
 20
260.666835263
 10
-438.6439192318
 20
262.9913568046
 10
-433.0119135999
 20
265.0978445556
 10
-427.2230546199
 20
266.9797122028
 10
-421.2952385866
 20
268.6312078979
 10
-415.2467827522
 20
270.0472056415
 10
-409.0963899367
 20
271.2232946899
 10
-402.863062846
 20
272.1558987644
 10
-396.566073338
 20
272.8421270397
 10
-390.2248832606
 20
273.2798039463
 10
-383.8590924139
 20
273.4676479843
 10
-377.4883778975
 20
273.4050035026
 10
-371.1324314796
 20
273.0921387222
 10
-364.8108988278
 20
272.529977515
 10
-358.5433176928
 20
271.7202484157
 10
-352.3490633093
 20
270.6654846218
 10
-346.2472799443
 20
269.3689345863
 10
-340.2568306052
 20
267.8345918205
 10
-334.3962299847
 20
266.0672246959
 10
-328.6835904442
 20
264.0722870376
 10
-323.1365698599
 20
261.855918124
 10
-317.7723157429
 20
259.4250320938
 10
-313.8276952528
 20
257.4384986904
  0
LINE
  5
9A
330
1F
100
AcDbEntity
  8
0
  6
Continuous
 62
     1
370
    25
100
AcDbLine
 10
-382.2661060118
 20
93.4460788515
 30
0.0
 11
-242.2661054157
 21
93.4460788515
 31
0.0
  0
LINE
  5
9B
330
1F
100
AcDbEntity
  8
0
  6
Continuous
 62
     1
370
    25
100
AcDbLine
 10
-522.2661066078
 20
93.4460788515
 30
0.0
 11
-382.2661060118
 21
93.4460788515
 31
0.0
  0
LINE
  5
9C
330
1F
100
AcDbEntity
  8
0
  6
Continuous
 62
     7
370
    25
100
AcDbLine
 10
577.4624034421
 20
93.4460788515
 30
0.0
 11
577.4624034421
 21
-83.5640252087
 31
0.0
  0
LINE
  5
9D
330
1F
100
AcDbEntity
  8
0
  6
Continuous
 62
     7
370
    25
100
AcDbLine
 10
857.4624046342
 20
-83.5640252087
 30
0.0
 11
857.4624046342
 21
93.4460788515
 31
0.0
  0
LINE
  5
9E
330
1F
100
AcDbEntity
  8
0
  6
Continuous
 62
     7
370
    25
100
AcDbLine
 10
857.4624046342
 20
93.4460788515
 30
0.0
 11
857.4624046342
 21
192.441034272
 31
0.0
  0
LINE
  5
9F
330
1F
100
AcDbEntity
  8
0
  6
Continuous
 62
     7
370
    25
100
AcDbLine
 10
577.4624034421
 20
192.441034272
 30
0.0
 11
577.4624034421
 21
93.4460788515
 31
0.0
  0
LINE
  5
A0
330
1F
100
AcDbEntity
  8
0
  6
Continuous
 62
     7
370
    25
100
AcDbLine
 10
577.4624034421
 20
322.4359631088
 30
0.0
 11
577.4624034421
 21
192.441034272
 31
0.0
  0
LINE
  5
A1
330
1F
100
AcDbEntity
  8
0
  6
Continuous
 62
     7
370
    25
100
AcDbLine
 10
857.4624046342
 20
192.441034272
 30
0.0
 11
857.4624046342
 21
322.4359631088
 31
0.0
  0
LINE
  5
A2
330
1F
100
AcDbEntity
  8
0
  6
Continuous
 62
     7
370
    25
100
AcDbLine
 10
577.4624034421
 20
-83.5640252087
 30
0.0
 11
857.4624046342
 21
-83.5640252087
 31
0.0
  0
LWPOLYLINE
  5
A3
330
1F
100
AcDbEntity
  8
0
  6
Continuous
 62
     7
370
    25
100
AcDbPolyline
 90
       64
 70
   128
 43
0.0
 10
577.4624034421
 20
322.4359631088
 10
577.5066151874
 20
324.9237417724
 10
577.8601601379
 20
329.892951205
 10
578.566341068
 20
334.8433255699
 10
579.6233996408
 20
339.7623776939
 10
581.028638746
 20
344.6376502063
 10
582.7785268085
 20
349.456834748
 10
584.8686381833
 20
354.2077719715
 10
587.2936978595
 20
358.8784515407
 10
590.0475665586
 20
363.4570717361
 10
593.1233003394
 20
367.9320692566
 10
596.5131282465
 20
372.2921192196
 10
600.2084821121
 20
376.5262543705
 10
604.2000263588
 20
380.6237458732
 10
608.477680351
 20
384.574252322
 10
613.0306407468
 20
388.3677899387
 10
617.8474113004
 20
391.9947623756
 10
622.9158103125
 20
395.446050122
 10
628.2230451362
 20
398.7128912952
 10
633.7557047264
 20
401.7870604541
 10
639.4998192446
 20
404.6607791927
 10
645.4408675091
 20
407.3267757442
 10
651.5638515012
 20
409.7783445861
 10
657.8533038156
 20
412.0092868354
 10
664.2933323638
 20
414.0139400509
 10
670.8676688032
 20
415.7872676399
 10
677.5597057895
 20
417.3247992542
 10
684.3525454061
 20
418.6226307895
 10
691.2290196524
 20
419.6774541881
 10
698.171763088
 20
420.4866468456
 10
705.1632361145
 20
421.048182204
 10
712.1857785278
 20
421.3605701473
 10
719.2216495642
 20
421.4230954197
 10
726.2530767949
 20
421.2355792072
 10
733.2622971044
 20
420.7984983471
 10
740.2316074477
 20
420.1129257229
 10
747.1433993088
 20
419.1805898693
 10
753.9802141146
 20
418.0038749721
 10
760.7247814195
 20
416.5857612636
 10
767.3600673334
 20
414.9298250225
 10
773.8693043248
 20
413.0402385738
 10
780.2360564129
 20
410.9217702892
 10
786.4442303435
 20
408.5797845867
 10
792.4781575458
 20
406.0201823261
 10
798.3225792305
 20
403.2494306114
 10
803.9627506988
 20
400.2745627906
 10
809.3844115393
 20
397.1030592468
 10
814.5738675849
 20
393.7429368045
 10
819.5180132644
 20
390.2026891258
 10
824.204353954
 20
386.4912569072
 10
828.6210581319
 20
382.6179980781
 10
832.7569648282
 20
378.5927474048
 10
836.601628329
 20
374.4256078746
 10
840.1453405277
 20
370.127159312
 10
843.379138376
 20
365.70821996
 10
846.2948634879
 20
361.1799954918
 10
848.8851472394
 20
356.5538703945
 10
851.1434331195
 20
351.8415867832
 10
853.0640437858
 20
347.0550059822
 10
854.6421065585
 20
342.2062575367
 10
855.8736428277
 20
337.3075603988
 10
856.7555531518
 20
332.3712825325
 10
857.2855725543
 20
327.4099111107
 10
857.4624046342
 20
322.4359631088
  0
LINE
  5
A4
330
1F
100
AcDbEntity
  8
0
  6
Continuous
 62
     1
370
    25
100
AcDbLine
 10
577.4624034421
 20
93.4460788515
 30
0.0
 11
857.4624046342
 21
93.4460788515
 31
0.0
  0
LWPOLYLINE
  5
A5
330
1F
100
AcDbEntity
  8
0
  6
Continuous
 62
     1
370
    25
100
AcDbPolyline
 90
       64
 70
   128
 43
0.0
 10
577.4624034421
 20
192.441034272
 10
577.5618835942
 20
196.1721658256
 10
578.0037030236
 20
201.1378585842
 10
578.7978008048
 20
206.0815572288
 10
579.9421950833
 20
210.9908341911
 10
581.4339652316
 20
215.8532321003
 10
583.269356157
 20
220.6565022018
 10
585.4437335984
 20
225.3884851482
 10
587.9515990274
 20
230.0372302082
 10
590.7866194503
 20
234.591025069
 10
593.9416348593
 20
239.038336232
 10
597.4086731331
 20
243.3679282215
 10
601.1789798395
 20
247.5688933876
 10
605.243025686
 20
251.6305923011
 10
609.590551223
 20
255.5427729633
 10
614.2105668442
 20
259.2955708053
 10
619.0914049403
 20
262.8794490841
 10
624.2207422511
 20
266.2854373005
 10
629.5856147663
 20
269.5048629787
 10
635.1724698798
 20
272.5296198871
 10
640.967196192
 20
275.3520786312
 10
646.9551533119
 20
277.9650866535
 10
653.1212240116
 20
280.3620576408
 10
659.4498216765
 20
282.5369119194
 10
665.9249648111
 20
284.4841956642
 10
672.530299391
 20
286.1989616897
 10
679.2491323905
 20
287.6769184616
 10
686.0644988374
 20
288.9142512825
 10
692.9591748522
 20
289.9079203155
 10
699.9157521532
 20
290.655362561
 10
706.9166510956
 20
291.1547302749
 10
713.944190753
 20
291.4047121551
 10
720.9806173233
 20
291.4047121551
 10
728.0081569807
 20
291.1547302749
 10
735.0090559231
 20
290.655362561
 10
741.9656332241
 20
289.9079203155
 10
748.8603092389
 20
288.9142512825
 10
755.6756756858
 20
287.6769184616
 10
762.3945086853
 20
286.1989616897
 10
768.9998432653
 20
284.4841956642
 10
775.4749863999
 20
282.5369119194
 10
781.8035840647
 20
280.3620576408
 10
787.9696547644
 20
277.9650866535
 10
793.9576118843
 20
275.3520786312
 10
799.7523381965
 20
272.5296198871
 10
805.33919331
 20
269.5048629787
 10
810.7040658252
 20
266.2854373005
 10
815.833403136
 20
262.8794490841
 10
820.7142412321
 20
259.2955708053
 10
825.3342568533
 20
255.5427729633
 10
829.6817823903
 20
251.6305923011
 10
833.7458282368
 20
247.5688933876
 10
837.5161349432
 20
243.3679282215
 10
840.983173217
 20
239.038336232
 10
844.138188626
 20
234.591025069
 10
846.973209049
 20
230.0372302082
 10
849.4810744779
 20
225.3884851482
 10
851.6554519193
 20
220.6565022018
 10
853.4908428447
 20
215.8532321003
 10
854.982612993
 20
210.9908341911
 10
856.1270072715
 20
206.0815572288
 10
856.9211050527
 20
201.1378585842
 10
857.3629244821
 20
196.1721658256
 10
857.4624046342
 20
192.441034272
  0
LINE
  5
A6
330
1F
100
AcDbEntity
  8
0
  6
Continuous
 62
     7
370
    25
100
AcDbLine
 10
288.8506699471
 20
828.4144624275
 30
0.0
 11
158.8557150333
 21
828.4144624275
 31
0.0
  0
LINE
  5
A7
330
1F
100
AcDbEntity
  8
0
  6
Continuous
 62
     7
370
    25
100
AcDbLine
 10
158.8557150333
 20
548.4144612354
 30
0.0
 11
288.8506699471
 21
548.4144612354
 31
0.0
  0
LINE
  5
A8
330
1F
100
AcDbEntity
  8
0
  6
Continuous
 62
     7
370
    25
100
AcDbLine
 10
158.8557150333
 20
828.4144624275
 30
0.0
 11
117.8506661324
 21
828.4144624275
 31
0.0
  0
LINE
  5
A9
330
1F
100
AcDbEntity
  8
0
  6
Continuous
 62
     7
370
    25
100
AcDbLine
 10
117.8506661324
 20
548.4144612354
 30
0.0
 11
158.8557150333
 21
548.4144612354
 31
0.0
  0
CIRCLE
  5
AA
330
1F
100
AcDbEntity
  8
0
  6
Continuous
 62
     7
370
    25
100
AcDbCircle
 10
117.8506661324
 20
688.4144618314
 30
0.0
 40
114.6
  0
CIRCLE
  5
AB
330
1F
100
AcDbEntity
  8
0
  6
Continuous
 62
     7
370
    25
100
AcDbCircle
 10
117.8506661324
 20
688.4144618314
 30
0.0
 40
140.0
  0
LWPOLYLINE
  5
AC
330
1F
100
AcDbEntity
  8
0
  6
Continuous
 62
     7
370
    25
100
AcDbPolyline
 90
       64
 70
   128
 43
0.0
 10
288.8506699471
 20
828.4144624275
 10
293.8246030478
 20
828.2376303476
 10
298.7859744696
 20
827.7076109451
 10
303.7222374348
 20
826.825700621
 10
308.6209494738
 20
825.5941643518
 10
313.4697128205
 20
824.016101579
 10
318.2562787203
 20
822.0954909128
 10
322.9685772328
 20
819.8372050327
 10
327.5946874289
 20
817.2469212812
 10
332.1229118971
 20
814.3311961692
 10
336.5418512492
 20
811.097398321
 10
340.8402998118
 20
807.5536861223
 10
345.0074244408
 20
803.7090226215
 10
349.0326900153
 20
799.5731159252
 10
352.9059339432
 20
795.1564117473
 10
356.6173661618
 20
790.4700710576
 10
360.1576287417
 20
785.5259253782
 10
363.5177362828
 20
780.3364693325
 10
366.6892547278
 20
774.914808492
 10
369.6641374497
 20
769.2746370238
 10
372.4348593621
 20
763.430215339
 10
374.9944616227
 20
757.3962881368
 10
377.3364473252
 20
751.1881142062
 10
379.4549156098
 20
744.8213621181
 10
381.3445020585
 20
738.3121251267
 10
383.0004681019
 20
731.6768392127
 10
384.4185818104
 20
724.9322719079
 10
385.5952669053
 20
718.095457102
 10
386.5276027588
 20
711.183665241
 10
387.2131753831
 20
704.2143548977
 10
387.6502860455
 20
697.2051345881
 10
387.837802258
 20
690.1737073575
 10
387.7752769856
 20
683.1378363211
 10
387.46285924
 20
676.1152939078
 10
386.9013536839
 20
669.1238208812
 10
386.0921312241
 20
662.1810774457
 10
385.0373078255
 20
655.3046031993
 10
383.7394762902
 20
648.5117635828
 10
382.2019744782
 20
641.8197265964
 10
380.4286468892
 20
635.2453901571
 10
378.4239638714
 20
628.8053616088
 10
376.1930514245
 20
622.5159092944
 10
373.7414825825
 20
616.3929253023
 10
371.0754562287
 20
610.4518770378
 10
368.2017374901
 20
604.7077625197
 10
365.1275832324
 20
599.1751029294
 10
361.8607420592
 20
593.8678681057
 10
358.4094692139
 20
588.7994690936
 10
354.7824818759
 20
583.98269854
 10
350.9889442591
 20
579.4297381442
 10
347.0384378104
 20
575.1520841521
 10
342.9409463076
 20
571.1605399054
 10
338.7068260579
 20
567.4651860398
 10
334.3467462926
 20
564.0753581327
 10
329.8717487721
 20
560.9996243518
 10
325.2931434779
 20
558.2457556527
 10
320.6224639086
 20
555.8206959766
 10
315.8715266852
 20
553.7305846017
 10
311.0523421435
 20
551.9806965392
 10
306.1770696311
 20
550.575457434
 10
301.258017507
 20
549.5183988612
 10
296.3076431422
 20
548.8122179311
 10
291.3384188084
 20
548.4586729806
 10
288.8506699471
 20
548.4144612354
  0
ARC
  5
AD
330
1F
100
AcDbEntity
  8
0
  6
Continuous
 62
     7
370
    25
100
AcDbCircle
 10
363.7116662687
 20
688.4144618314
 30
0.0
 40
155.9655549343935
100
AcDbArc
 50
159.0874413453
 51
200.9125586547
  0
LWPOLYLINE
  5
AE
330
1F
100
AcDbEntity
  8
0
  6
Continuous
 62
     1
370
    25
100
AcDbPolyline
 90
       33
 70
   128
 43
0.0
 10
257.8506667285
 20
688.4144618314
 10
257.7256310849
 20
681.3802573968
 10
257.3508370785
 20
674.3638216656
 10
256.7272532849
 20
667.3828791034
 10
255.8564145236
 20
660.4550647687
 10
254.7405559687
 20
653.5978763502
 10
253.3824790387
 20
646.828640173
 10
251.7856259017
 20
640.164453457
 10
249.9540198712
 20
633.6221470636
 10
247.8922952084
 20
627.2182538312
 10
245.6056524186
 20
620.9689452451
 10
243.0998731522
 20
614.8900165361
 10
240.3812829523
 20
608.9968084496
 10
237.4567587046
 20
603.3042221468
 10
234.3336764841
 20
597.8266297978
 10
231.0199264555
 20
592.5778671306
 10
227.523890522
 20
587.5711961788
 10
223.854390171
 20
582.8192680281
 10
220.0207013754
 20
578.3340781134
 10
216.0324949889
 20
574.1269662183
 10
211.899866548
 20
570.2085494202
 10
207.6332319646
 20
566.5887369912
 10
203.2433871297
 20
563.2766558927
 10
198.7414185075
 20
560.2807029289
 10
194.1386956839
 20
557.6084031862
 10
189.4468415646
 20
555.2665515941
 10
184.6777100234
 20
553.2610341113
 10
179.843348649
 20
551.5969171327
 10
174.9559763937
 20
550.2784325879
 10
170.0279276936
 20
549.3088736337
 10
165.0716599195
 20
548.6907138627
 10
160.0996900468
 20
548.425517897
 10
158.8557150333
 20
548.4144612354
  0
LWPOLYLINE
  5
AF
330
1F
100
AcDbEntity
  8
0
  6
Continuous
 62
     1
370
    25
100
AcDbPolyline
 90
       33
 70
   128
 43
0.0
 10
158.8557150333
 20
828.4144624275
 10
160.0996900468
 20
828.4034057658
 10
165.0716599195
 20
828.1382098001
 10
170.0279276936
 20
827.5200500291
 10
174.9559763937
 20
826.5504910749
 10
179.843348649
 20
825.2320065301
 10
184.6777100234
 20
823.5678895515
 10
189.4468415646
 20
821.5623720687
 10
194.1386956839
 20
819.2205204767
 10
198.7414185075
 20
816.548220734
 10
203.2433871297
 20
813.5522677701
 10
207.6332319646
 20
810.2401866716
 10
211.899866548
 20
806.6203742426
 10
216.0324949889
 20
802.7019574445
 10
220.0207013754
 20
798.4948455494
 10
223.854390171
 20
794.0096556347
 10
227.523890522
 20
789.2577274841
 10
231.0199264555
 20
784.2510565322
 10
234.3336764841
 20
779.002293865
 10
237.4567587046
 20
773.524701516
 10
240.3812829523
 20
767.8321152132
 10
243.0998731522
 20
761.9389071267
 10
245.6056524186
 20
755.8599784177
 10
247.8922952084
 20
749.6106698316
 10
249.9540198712
 20
743.2067765992
 10
251.7856259017
 20
736.6644702059
 10
253.3824790387
 20
730.0002834898
 10
254.7405559687
 20
723.2310473126
 10
255.8564145236
 20
716.3738588941
 10
256.7272532849
 20
709.4460445594
 10
257.3508370785
 20
702.4651019972
 10
257.7256310849
 20
695.448666266
 10
257.8506667285
 20
688.4144618314
  0
LWPOLYLINE
  5
B0
330
1F
100
AcDbEntity
  8
0
  6
Continuous
 62
     1
370
    25
100
AcDbPolyline
 90
       51
 70
   128
 43
0.0
 10
141.8708685903
 20
800.468869428
 10
140.9807793914
 20
800.1916184228
 10
136.6158660619
 20
798.6140026849
 10
132.3196936516
 20
796.6957538527
 10
128.1055428205
 20
794.44282494
 10
123.9864385804
 20
791.8621598881
 10
119.975113508
 20
788.9617531699
 10
116.0839663005
 20
785.7505529326
 10
112.3250240578
 20
782.2384982508
 10
108.7099054946
 20
778.4364297193
 10
105.2497850849
 20
774.3561192554
 10
101.9553572057
 20
770.0101583403
 10
98.8368049382
 20
765.411995272
 10
95.9037684022
 20
760.5758383077
 10
93.1653112291
 20
755.5166333121
 10
90.6299010037
 20
750.2500190538
 10
88.3053720115
 20
744.7922750514
 10
86.1989084749
 20
739.1602694195
 10
84.3170259266
 20
733.3714104396
 10
82.665537682
 20
727.4435944062
 10
81.249547389
 20
721.3951385718
 10
80.0734359889
 20
715.2447457563
 10
79.1408319144
 20
709.0114186656
 10
78.4546259908
 20
702.7144291576
 10
78.0169341831
 20
696.3732390803
 10
77.8291087715
 20
690.0074482335
 10
77.8917346267
 20
683.6367337171
 10
78.204610583
 20
677.2807872992
 10
78.7667792408
 20
670.9592546475
 10
79.5764971642
 20
664.6916735124
 10
80.6312609582
 20
658.497419129
 10
81.9278147189
 20
652.395635764
 10
83.4621463089
 20
646.4051864248
 10
85.2295171587
 20
640.5445858043
 10
87.224460405
 20
634.8319462639
 10
89.4408106922
 20
629.2849256795
 10
91.8717209367
 20
623.9206715625
 10
94.5096735029
 20
618.7557726305
 10
97.3465174554
 20
613.8061731261
 10
100.3734815983
 20
609.0871914428
 10
103.5812107964
 20
604.6134009164
 10
106.9597901894
 20
600.3986372751
 10
110.4987777887
 20
596.4559241336
 10
114.187233348
 20
592.7974506419
 10
118.0137568679
 20
589.4345193308
 10
121.9665205224
 20
586.3775386613
 10
126.0333063199
 20
583.6359410685
 10
130.2015448107
 20
581.218205313
 10
134.458351147
 20
579.1318117779
 10
138.7905694662
 20
577.3832052153
 10
141.8708685903
 20
576.3600542348
  0
INSERT
  5
BC
330
1F
100
AcDbEntity
  8
FORMAT
 62
     7
100
AcDbBlockReference
  2
SW_CENTERMARKSYMBOL_0
 10
117.8506661324
 20
688.4144618314
 30
0.0
  0
LINE
  5
BD
330
1F
100
AcDbEntity
  8
0
  6
Continuous
 62
     7
370
    25
100
AcDbLine
 10
288.8506699471
 20
-260.6531234236
 30
0.0
 11
158.8557150333
 21
-260.6531234236
 31
0.0
  0
LINE
  5
BE
330
1F
100
AcDbEntity
  8
0
  6
Continuous
 62
     7
370
    25
100
AcDbLine
 10
158.8557150333
 20
-540.6531246157
 30
0.0
 11
288.8506699471
 21
-540.6531246157
 31
0.0
  0
LINE
  5
BF
330
1F
100
AcDbEntity
  8
0
  6
Continuous
 62
     7
370
    25
100
AcDbLine
 10
117.8506661324
 20
-540.6531246157
 30
0.0
 11
158.8557150333
 21
-540.6531246157
 31
0.0
  0
LINE
  5
C0
330
1F
100
AcDbEntity
  8
0
  6
Continuous
 62
     7
370
    25
100
AcDbLine
 10
158.8557150333
 20
-260.6531234236
 30
0.0
 11
117.8506661324
 21
-260.6531234236
 31
0.0
  0
LWPOLYLINE
  5
C1
330
1F
100
AcDbEntity
  8
0
  6
Continuous
 62
     7
370
    25
100
AcDbPolyline
 90
      126
 70
   128
 43
0.0
 10
288.8506699471
 20
-540.6531246157
 10
293.8246030478
 20
-540.4762925358
 10
298.7859744696
 20
-539.9462731333
 10
303.7222374348
 20
-539.0643628092
 10
308.6209494738
 20
-537.8328265401
 10
313.4697128205
 20
-536.2547637673
 10
318.2562787203
 20
-534.334153101
 10
322.9685772328
 20
-532.0758672209
 10
327.5946874289
 20
-529.4855834695
 10
332.1229118971
 20
-526.5698583575
 10
336.5418512492
 20
-523.3360605093
 10
340.8402998118
 20
-519.7923483105
 10
345.0074244408
 20
-515.9476848097
 10
349.0326900153
 20
-511.8117781134
 10
352.9059339432
 20
-507.3950739356
 10
356.6173661618
 20
-502.7087332459
 10
360.1576287417
 20
-497.7645875664
 10
363.5177362828
 20
-492.5751315208
 10
366.6892547278
 20
-487.1534706803
 10
369.6641374497
 20
-481.513299212
 10
372.4348593621
 20
-475.6688775273
 10
374.9944616227
 20
-469.6349503251
 10
377.3364473252
 20
-463.4267763944
 10
379.4549156098
 20
-457.0600243064
 10
381.3445020585
 20
-450.550787315
 10
383.0004681019
 20
-443.915501401
 10
384.4185818104
 20
-437.1709340962
 10
385.5952669053
 20
-430.3341192903
 10
386.5276027588
 20
-423.4223274292
 10
387.2131753831
 20
-416.453017086
 10
387.6502860455
 20
-409.4437967764
 10
387.837802258
 20
-402.4123695457
 10
387.7752769856
 20
-395.3764985094
 10
387.46285924
 20
-388.3539560961
 10
386.9013536839
 20
-381.3624830695
 10
386.0921312241
 20
-374.419739634
 10
385.0373078255
 20
-367.5432653876
 10
383.7394762902
 20
-360.7504257711
 10
382.2019744782
 20
-354.0583887847
 10
380.4286468892
 20
-347.4840523453
 10
378.4239638714
 20
-341.0440237971
 10
376.1930514245
 20
-334.7545714827
 10
373.7414825825
 20
-328.6315874906
 10
371.0754562287
 20
-322.6905392261
 10
368.2017374901
 20
-316.946424708
 10
365.1275832324
 20
-311.4137651177
 10
361.8607420592
 20
-306.106530294
 10
358.4094692139
 20
-301.0381312819
 10
354.7824818759
 20
-296.2213607283
 10
350.9889442591
 20
-291.6684003325
 10
347.0384378104
 20
-287.3907463403
 10
342.9409463076
 20
-283.3992020937
 10
338.7068260579
 20
-279.703848228
 10
334.3467462926
 20
-276.314020321
 10
329.8717487721
 20
-273.2382865401
 10
325.2931434779
 20
-270.484417841
 10
320.6224639086
 20
-268.0593581649
 10
315.8715266852
 20
-265.96924679
 10
311.0523421435
 20
-264.2193587275
 10
306.1770696311
 20
-262.8141196223
 10
301.258017507
 20
-261.7570610495
 10
296.3076431422
 20
-261.0508801194
 10
291.3384188084
 20
-260.6973351689
 10
286.3629061846
 20
-260.6973351689
 10
281.393696752
 20
-261.0508801194
 10
276.443307486
 20
-261.7570610495
 10
271.5242702632
 20
-262.8141196223
 10
266.6489977507
 20
-264.2193587275
 10
261.8297983079
 20
-265.96924679
 10
257.0788759856
 20
-268.0593581649
 10
252.4081964163
 20
-270.484417841
 10
247.829576221
 20
-273.2382865401
 10
243.3545787005
 20
-276.314020321
 10
238.9945138363
 20
-279.703848228
 10
234.760386136
 20
-283.3992020937
 10
230.6628946333
 20
-287.3907463403
 10
226.7123881845
 20
-291.6684003325
 10
222.9188580184
 20
-296.2213607283
 10
219.2918706803
 20
-301.0381312819
 10
215.8405903844
 20
-306.106530294
 10
212.5737492113
 20
-311.4137651177
 10
209.4995800523
 20
-316.946424708
 10
206.6258687644
 20
-322.6905392261
 10
203.9598573117
 20
-328.6315874906
 10
201.5082884698
 20
-334.7545714827
 10
199.2773611216
 20
-341.0440237971
 10
197.272693005
 20
-347.4840523453
 10
195.499365416
 20
-354.0583887847
 10
193.9618487029
 20
-360.7504257711
 10
192.6640320687
 20
-367.5432653876
 10
191.6091863184
 20
-374.419739634
 10
190.7999862103
 20
-381.3624830695
 10
190.2384732036
 20
-388.3539560961
 10
189.926055458
 20
-395.3764985094
 10
189.8635301857
 20
-402.4123695457
 10
190.0510612993
 20
-409.4437967764
 10
190.4881645112
 20
-416.453017086
 10
191.173744586
 20
-423.4223274292
 10
192.1060580878
 20
-430.3341192903
 10
193.2827580838
 20
-437.1709340962
 10
194.7008717923
 20
-443.915501401
 10
196.3568229346
 20
-450.550787315
 10
198.2464093833
 20
-457.0600243064
 10
200.3648776679
 20
-463.4267763944
 10
202.706870821
 20
-469.6349503251
 10
205.266465631
 20
-475.6688775273
 10
208.0372024445
 20
-481.513299212
 10
211.0120851664
 20
-487.1534706803
 10
214.1835887103
 20
-492.5751315208
 10
217.5437111525
 20
-497.7645875664
 10
221.0839588313
 20
-502.7087332459
 10
224.7953910498
 20
-507.3950739356
 10
228.6686349778
 20
-511.8117781134
 10
232.6939080028
 20
-515.9476848097
 10
236.8610326318
 20
-519.7923483105
 10
241.159488645
 20
-523.3360605093
 10
245.5784130959
 20
-526.5698583575
 10
250.1066524653
 20
-529.4855834695
 10
254.7327626614
 20
-532.0758672209
 10
259.4450462727
 20
-534.334153101
 10
264.2316270737
 20
-536.2547637673
 10
269.0803904204
 20
-537.8328265401
 10
273.9790875582
 20
-539.0643628092
 10
278.9153654246
 20
-539.9462731333
 10
283.8767368464
 20
-540.4762925358
 10
288.8506699471
 20
-540.6531246157
  0
LWPOLYLINE
  5
C2
330
1F
100
AcDbEntity
  8
0
  6
Continuous
 62
     7
370
    25
100
AcDbPolyline
 90
      114
 70
   128
 43
0.0
 10
288.8506699471
 20
-515.2531267853
 10
284.3471963076
 20
-515.0760115834
 10
279.8576403527
 20
-514.5452247711
 10
275.3958899645
 20
-513.6624054762
 10
270.9757287173
 20
-512.4302806111
 10
266.6108209757
 20
-510.8526648732
 10
262.3146373896
 20
-508.934416041
 10
258.1004846959
 20
-506.6814871283
 10
253.9813865094
 20
-504.1008220764
 10
249.9700684218
 20
-501.2004153581
 10
246.0789132981
 20
-497.9892151209
 10
242.3199761777
 20
-494.4771604391
 10
238.7048576145
 20
-490.6750919076
 10
235.2447334795
 20
-486.5947814437
 10
231.9503028063
 20
-482.2488205286
 10
228.8317579894
 20
-477.6506574603
 10
225.8987177281
 20
-472.814500496
 10
223.1602642803
 20
-467.7552955003
 10
220.6248466043
 20
-462.4886812421
 10
218.3003176121
 20
-457.0309372397
 10
216.1938596635
 20
-451.3989316078
 10
214.3119771151
 20
-445.6100726278
 10
212.6604888706
 20
-439.6822565945
 10
211.2444985776
 20
-433.6338007601
 10
210.0683871774
 20
-427.4834079446
 10
209.135783103
 20
-421.2500808539
 10
208.4495771794
 20
-414.9530913459
 10
208.0118853716
 20
-408.6119012685
 10
207.8240562348
 20
-402.2461104218
 10
207.8866858153
 20
-395.8753959054
 10
208.1995580463
 20
-389.5194494875
 10
208.7617267041
 20
-383.1979168357
 10
209.5714483528
 20
-376.9303357007
 10
210.6262121467
 20
-370.7360813173
 10
211.9227621822
 20
-364.6342979522
 10
213.4570974974
 20
-358.6438486131
 10
215.224464622
 20
-352.7832479926
 10
217.2194097309
 20
-347.0706084521
 10
219.4357637434
 20
-341.5235878678
 10
221.8666721253
 20
-336.1593337508
 10
224.5046246915
 20
-330.9944348188
 10
227.3414630561
 20
-326.0448353143
 10
230.3684327869
 20
-321.3258536311
 10
233.5761610536
 20
-316.8520631047
 10
236.954738584
 20
-312.6372994633
 10
240.4937271146
 20
-308.6945863219
 10
244.1821891932
 20
-305.0361128302
 10
248.0087030797
 20
-301.6731815191
 10
251.9614745049
 20
-298.6162008496
 10
256.0282547145
 20
-295.8746032568
 10
260.1964969306
 20
-293.4568675013
 10
264.4532967476
 20
-291.3704739662
 10
268.7855113415
 20
-289.6218674036
 10
273.1797594695
 20
-288.2164494844
 10
277.6224363713
 20
-287.1585713478
 10
282.0998180775
 20
-286.451496348
 10
286.5980614094
 20
-286.0974075051
 10
291.1032784848
 20
-286.0974075051
 10
295.6015218167
 20
-286.451496348
 10
300.0789035229
 20
-287.1585713478
 10
304.5215804248
 20
-288.2164494844
 10
308.9158136515
 20
-289.6218674036
 10
313.2480282454
 20
-291.3704739662
 10
317.5048429637
 20
-293.4568675013
 10
321.6730702786
 20
-295.8746032568
 10
325.7398653893
 20
-298.6162008496
 10
329.6926219134
 20
-301.6731815191
 10
333.519150701
 20
-305.0361128302
 10
337.207605329
 20
-308.6945863219
 10
340.7465864091
 20
-312.6372994633
 10
344.12517139
 20
-316.8520631047
 10
347.3328996567
 20
-321.3258536311
 10
350.359861937
 20
-326.0448353143
 10
353.1967152028
 20
-330.9944348188
 10
355.8346677689
 20
-336.1593337508
 10
358.2655687003
 20
-341.5235878678
 10
360.4819227128
 20
-347.0706084521
 10
362.4768603711
 20
-352.7832479926
 10
364.2442423968
 20
-358.6438486131
 10
365.7785702614
 20
-364.6342979522
 10
367.0751202969
 20
-370.7360813173
 10
368.1298840909
 20
-376.9303357007
 10
368.9396131901
 20
-383.1979168357
 10
369.5017743973
 20
-389.5194494875
 10
369.8146391778
 20
-395.8753959054
 10
369.8772836594
 20
-402.2461104218
 10
369.6894396214
 20
-408.6119012685
 10
369.2517627148
 20
-414.9530913459
 10
368.5655642419
 20
-421.2500808539
 10
367.6329452662
 20
-427.4834079446
 10
366.4568413167
 20
-433.6338007601
 10
365.0408435731
 20
-439.6822565945
 10
363.3893627791
 20
-445.6100726278
 10
361.5074653296
 20
-451.3989316078
 10
359.4010073809
 20
-457.0309372397
 10
357.0764858393
 20
-462.4886812421
 10
354.5410681634
 20
-467.7552955003
 10
351.8026221661
 20
-472.814500496
 10
348.8695819049
 20
-477.6506574603
 10
345.7510221867
 20
-482.2488205286
 10
342.4565989642
 20
-486.5947814437
 10
338.9964748292
 20
-490.6750919076
 10
335.3813637166
 20
-494.4771604391
 10
331.622411695
 20
-497.9892151209
 10
327.7312714724
 20
-501.2004153581
 10
323.7199384837
 20
-504.1008220764
 10
319.6008402972
 20
-506.6814871283
 10
315.3866876034
 20
-508.934416041
 10
311.0905189185
 20
-510.8526648732
 10
306.7255962758
 20
-512.4302806111
 10
302.3054350285
 20
-513.6624054762
 10
297.8436846404
 20
-514.5452247711
 10
293.3541286854
 20
-515.0760115834
 10
288.8506699471
 20
-515.2531267853
  0
ARC
  5
C3
330
1F
100
AcDbEntity
  8
0
  6
Continuous
 62
     7
370
    25
100
AcDbCircle
 10
117.8506661324
 20
-400.6531240197
 30
0.0
 40
140.0000000000001
100
AcDbArc
 50
90.0
 51
270.0
  0
ARC
  5
C4
330
1F
100
AcDbEntity
  8
0
  6
Continuous
 62
     7
370
    25
100
AcDbCircle
 10
117.8506661324
 20
-400.6531240197
 30
0.0
 40
114.6
100
AcDbArc
 50
330.9361905185
 51
29.0638094815
  0
LWPOLYLINE
  5
C5
330
1F
100
AcDbEntity
  8
0
  6
Continuous
 62
     1
370
    25
100
AcDbPolyline
 90
       64
 70
   128
 43
0.0
 10
158.8557150333
 20
-260.6531234236
 10
155.1245797543
 20
-260.7526035758
 10
150.158890721
 20
-261.1944230052
 10
145.21517345
 20
-261.9885207864
 10
140.3059132515
 20
-263.1329150649
 10
135.4435097544
 20
-264.6246852132
 10
130.6402489661
 20
-266.4600761386
 10
125.9082632257
 20
-268.63445358
 10
121.2595044287
 20
-271.1423190089
 10
116.7057173677
 20
-273.9773394318
 10
112.2584046914
 20
-277.1323548408
 10
107.928801526
 20
-280.5993931146
 10
103.7278428791
 20
-284.3696998211
 10
99.6661439656
 20
-288.4337456675
 10
95.7539614408
 20
-292.7812712045
 10
92.0011803625
 20
-297.4012868257
 10
88.4172778694
 20
-302.2821249219
 10
85.0113120048
 20
-307.4114622327
 10
81.7918788759
 20
-312.7763347479
 10
78.7671219675
 20
-318.3631898614
 10
75.9446706741
 20
-324.1579161735
 10
73.3316626517
 20
-330.1458732935
 10
70.9346953897
 20
-336.3119439932
 10
68.7598224847
 20
-342.640541658
 10
66.8125424652
 20
-349.1156847926
 10
65.0977689891
 20
-355.7210193725
 10
63.6198345689
 20
-362.439852372
 10
62.3824793963
 20
-369.255218819
 10
61.3888215391
 20
-376.1498948337
 10
60.6413718431
 20
-383.1064721348
 10
60.1420227556
 20
-390.1073710771
 10
59.8920296995
 20
-397.1349107346
 10
59.8920296995
 20
-404.1713373048
 10
60.1420227556
 20
-411.1988769623
 10
60.6413718431
 20
-418.1997759046
 10
61.3888215391
 20
-425.1563532056
 10
62.3824793963
 20
-432.0510292204
 10
63.6198345689
 20
-438.8663956674
 10
65.0977689891
 20
-445.5852286668
 10
66.8125424652
 20
-452.1905632468
 10
68.7598224847
 20
-458.6657063814
 10
70.9346953897
 20
-464.9943040462
 10
73.3316626517
 20
-471.1603747459
 10
75.9446706741
 20
-477.1483318659
 10
78.7671219675
 20
-482.943058178
 10
81.7918788759
 20
-488.5299132915
 10
85.0113120048
 20
-493.8947858067
 10
88.4172778694
 20
-499.0241231175
 10
92.0011803625
 20
-503.9049612137
 10
95.7539614408
 20
-508.5249768348
 10
99.6661439656
 20
-512.8725023719
 10
103.7278428791
 20
-516.9365482183
 10
107.928801526
 20
-520.7068549247
 10
112.2584046914
 20
-524.1738931986
 10
116.7057173677
 20
-527.3289086075
 10
121.2595044287
 20
-530.1639290305
 10
125.9082632257
 20
-532.6717944594
 10
130.6402489661
 20
-534.8461719008
 10
135.4435097544
 20
-536.6815628262
 10
140.3059132515
 20
-538.1733329745
 10
145.21517345
 20
-539.317727253
 10
150.158890721
 20
-540.1118250342
 10
155.1245797543
 20
-540.5536444636
 10
158.8557150333
 20
-540.6531246157
  0
LWPOLYLINE
  5
C6
330
1F
100
AcDbEntity
  8
0
  6
Continuous
 62
     1
370
    25
100
AcDbPolyline
 90
       25
 70
   128
 43
0.0
 10
223.8531906275
 20
-332.2147132607
 10
225.8397091298
 20
-336.1593337508
 10
228.2706249623
 20
-341.5235878678
 10
230.4869715242
 20
-347.0706084521
 10
232.4819166331
 20
-352.7832479926
 10
234.2492837577
 20
-358.6438486131
 10
235.7836190729
 20
-364.6342979522
 10
237.0801691084
 20
-370.7360813173
 10
238.1349329023
 20
-376.9303357007
 10
238.944654551
 20
-383.1979168357
 10
239.5068232088
 20
-389.5194494875
 10
239.8197028904
 20
-395.8753959054
 10
239.8823250203
 20
-402.2461104218
 10
239.694503334
 20
-408.6119012685
 10
239.2568115263
 20
-414.9530913459
 10
238.5705981521
 20
-421.2500808539
 10
237.6380015282
 20
-427.4834079446
 10
236.4618826775
 20
-433.6338007601
 10
235.0458923845
 20
-439.6822565945
 10
233.39440414
 20
-445.6100726278
 10
231.5125215916
 20
-451.3989316078
 10
229.4060636429
 20
-457.0309372397
 10
227.0815346508
 20
-462.4886812421
 10
224.5461244254
 20
-467.7552955003
 10
223.8531906275
 20
-469.0915347787
  0
INSERT
  5
D2
330
1F
100
AcDbEntity
  8
FORMAT
 62
     7
100
AcDbBlockReference
  2
SW_CENTERMARKSYMBOL_1
 10
117.8506661324
 20
-400.6531240197
 30
0.0
  0
LINE
  5
D3
330
1F
100
AcDbEntity
  8
0
  6
Continuous
 62
     7
370
    25
100
AcDbLine
 10
505.3185063294
 20
-448.537702876
 30
0.0
 11
505.3185063294
 21
-593.0736769573
 31
0.0
  0
LINE
  5
D4
330
1F
100
AcDbEntity
  8
0
  6
Continuous
 62
     7
370
    25
100
AcDbLine
 10
785.3185023804
 20
-593.0736769572
 30
0.0
 11
785.3185023804
 21
-448.537702876
 31
0.0
  0
LINE
  5
D5
330
1F
100
AcDbEntity
  8
0
  6
Continuous
 62
     7
370
    25
100
AcDbLine
 10
644.9902067468
 20
-121.7552074408
 30
0.0
 11
553.0698952413
 21
-280.9658628323
 31
0.0
  0
LINE
  5
D6
330
1F
100
AcDbEntity
  8
0
  6
Continuous
 62
     7
370
    25
100
AcDbLine
 10
795.5570097498
 20
-420.9658579955
 30
0.0
 11
887.4773265236
 21
-261.7552117301
 31
0.0
  0
SPLINE
  5
D7
330
1F
100
AcDbEntity
  8
0
  6
Continuous
 62
     7
370
    25
100
AcDbSpline
210
0.0
220
0.0
230
1.0
 70
     8
 71
     3
 72
    27
 73
    23
 74
     0
 42
0.000000001
 43
0.00000001
 40
0.0
 40
0.0
 40
0.0
 40
0.0
 40
0.0306252159676757
 40
0.0832712919155655
 40
0.1359623006436915
 40
0.1887210719775381
 40
0.2415725029894484
 40
0.2945399276609766
 40
0.3476452224332173
 40
0.4009081786966867
 40
0.4543446443041267
 40
0.5079665617480451
 40
0.5617802271617798
 40
0.6157850522086677
 40
0.6699721961644147
 40
0.7243230750200106
 40
0.7788084659344733
 40
0.83338747237792
 40
0.8879931873536477
 40
0.9425552495816417
 40
0.9932048147700918
 40
1.0
 40
1.0
 40
1.0
 40
1.0
 10
553.0698952413396
 20
-280.9658628322807
 30
0.0
 10
552.1569127562764
 20
-282.56311485652
 30
0.0
 10
549.6744737391035
 20
-286.9061124606361
 30
0.0
 10
545.7897715339631
 20
-294.0901657287056
 30
0.0
 10
541.4741812279824
 20
-302.5406550775774
 30
0.0
 10
537.373917535966
 20
-311.0983722674002
 30
0.0
 10
533.4895444402543
 20
-319.7563315684518
 30
0.0
 10
529.8265843337788
 20
-328.5104470112773
 30
0.0
 10
526.3898388715276
 20
-337.3558395560084
 30
0.0
 10
523.1849609926135
 20
-346.2876017955042
 30
0.0
 10
520.217967163574
 20
-355.3004200167875
 30
0.0
 10
517.4955045767417
 20
-364.3884376955703
 30
0.0
 10
515.0246915024994
 20
-373.5450401453013
 30
0.0
 10
512.8131429808652
 20
-382.7626264913206
 30
0.0
 10
510.8688410908072
 20
-392.0323259246413
 30
0.0
 10
509.2000816061165
 20
-401.3437847695778
 30
0.0
 10
507.8151037464352
 20
-410.6849276386641
 30
0.0
 10
506.7222905462199
 20
-420.040975455508
 30
0.0
 10
505.9287306676998
 20
-429.3949192637329
 30
0.0
 10
505.4541795960463
 20
-438.5111049314224
 30
0.0
 10
505.3235011082737
 20
-444.8870864965164
 30
0.0
 10
505.3190346681882
 20
-448.1515472198181
 30
0.0
 10
505.3185063294368
 20
-448.5377028759754
 30
0.0
  0
SPLINE
  5
D8
330
1F
100
AcDbEntity
  8
0
  6
Continuous
 62
     7
370
    25
100
AcDbSpline
210
0.0
220
0.0
230
1.0
 70
     8
 71
     3
 72
    23
 73
    19
 74
     0
 42
0.000000001
 43
0.00000001
 40
0.0
 40
0.0
 40
0.0
 40
0.0
 40
0.0673956057731923
 40
0.1341096049581926
 40
0.1991888786231301
 40
0.2630236554923172
 40
0.3259707716670787
 40
0.3883468484539753
 40
0.4504268518342465
 40
0.5124382316695277
 40
0.5745610172469697
 40
0.6368912864279841
 40
0.6995163263366319
 40
0.7624901893737389
 40
0.8258262176975495
 40
0.8895017061300391
 40
0.9534664390522828
 40
1.0
 40
1.0
 40
1.0
 40
1.0
 10
785.3171115343771
 20
-448.6717932927219
 30
0.0
 10
785.3179497351375
 20
-448.6457505078778
 30
0.0
 10
785.3196176595009
 20
-448.5939283223306
 30
0.0
 10
785.3548046494719
 20
-448.1426320556765
 30
0.0
 10
785.4383621933191
 20
-447.4264927416179
 30
0.0
 10
785.5877572676723
 20
-446.4348273864419
 30
0.0
 10
785.8178902564948
 20
-445.1882770089429
 30
0.0
 10
786.1422881337398
 20
-443.6999466723456
 30
0.0
 10
786.5726253933423
 20
-441.9866581670675
 30
0.0
 10
787.1187390730041
 20
-440.0665870395241
 30
0.0
 10
787.7880742201679
 20
-437.9606436983962
 30
0.0
 10
788.5855602693448
 20
-435.6923143357651
 30
0.0
 10
789.5132214156654
 20
-433.2873359451304
 30
0.0
 10
790.5705689246008
 20
-430.7733353585556
 30
0.0
 10
791.7528227307216
 20
-428.1791060775656
 30
0.0
 10
793.0562863687807
 20
-425.5374457887314
 30
0.0
 10
794.328446604264
 20
-423.1184146057025
 30
0.0
 10
795.1988564313551
 20
-421.6061410062283
 30
0.0
 10
795.5654075093845
 20
-420.9692852390834
 30
0.0
  0
LWPOLYLINE
  5
D9
330
1F
100
AcDbEntity
  8
0
  6
Continuous
 62
     7
370
    25
100
AcDbPolyline
 90
      126
 70
   128
 43
0.0
 10
546.3235545673
 20
-535.9251088864
 10
551.4225273861
 20
-533.1259016783
 10
556.7586769851
 20
-530.4781202246
 10
562.3185535805
 20
-527.9884705278
 10
568.0880857225
 20
-525.6632267179
 10
574.0527090408
 20
-523.5082662176
 10
580.1973586713
 20
-521.5290376185
 10
586.506499549
 20
-519.7305310273
 10
592.9642159703
 20
-518.1172993558
 10
599.5541812996
 20
-516.6934149814
 10
606.2597501661
 20
-515.4624712675
 10
613.0639848049
 20
-514.4275856054
 10
619.9496998385
 20
-513.5913613968
 10
626.899493887
 20
-512.9559184677
 10
633.8958180563
 20
-512.5228596134
 10
640.9209970117
 20
-512.293276681
 10
647.95728693
 20
-512.2677536112
 10
654.9869071096
 20
-512.4463542725
 10
661.9921084588
 20
-512.8286255027
 10
668.9551893013
 20
-513.4136062328
 10
675.8585585962
 20
-514.1998092392
 10
682.6847833532
 20
-515.1852606811
 10
689.416620243
 20
-516.3674575215
 10
696.0370524754
 20
-517.7434313957
 10
702.5293793618
 20
-519.3096847429
 10
708.8771741679
 20
-521.0622820468
 10
715.0644184572
 20
-522.9967814054
 10
721.0754849684
 20
-525.1082976385
 10
726.895169226
 20
-527.3915083709
 10
732.5087975413
 20
-529.8406312224
 10
737.9021697189
 20
-532.4494880558
 10
743.0616614609
 20
-535.2114911014
 10
747.9742487324
 20
-538.1196570228
 10
752.6275225795
 20
-541.1666398018
 10
757.0097286411
 20
-544.3447413831
 10
761.1097806497
 20
-547.6459437986
 10
764.9173414321
 20
-551.0618951014
 10
768.422787019
 20
-554.583973804
 10
771.6172547183
 20
-558.2032801348
 10
774.4926839453
 20
-561.910671774
 10
777.0418096369
 20
-565.6967843828
 10
779.2581912279
 20
-569.5520544134
 10
781.1362284558
 20
-573.4667403986
 10
782.6711745317
 20
-577.4309548862
 10
783.8591624823
 20
-581.434685728
 10
784.697178808
 20
-585.4678173701
 10
785.1831161662
 20
-589.5201612658
 10
785.3157417618
 20
-593.5814802066
 10
785.0947236882
 20
-597.6415217774
 10
784.5206151229
 20
-601.6900213975
 10
783.594870132
 20
-605.716754024
 10
782.3198278658
 20
-609.7115493584
 10
780.6987125581
 20
-613.6643161773
 10
778.7356124532
 20
-617.5650727465
 10
776.4354903426
 20
-621.4039589858
 10
773.8041519546
 20
-625.1712790483
 10
770.8482512229
 20
-628.8575226102
 10
767.5752507739
 20
-632.453369432
 10
763.9934166583
 20
-635.9497410627
 10
760.1117985947
 20
-639.3378000784
 10
755.9402088962
 20
-642.6089987447
 10
751.4891711041
 20
-645.7550600079
 10
746.7699441892
 20
-648.7680486819
 10
741.794439246
 20
-651.640346547
 10
736.5752242673
 20
-654.3646982555
 10
731.1254958263
 20
-656.9342276789
 10
725.458999558
 20
-659.3424351517
 10
719.5900732933
 20
-661.5832455628
 10
713.5335237471
 20
-663.6509943845
 10
707.3046594449
 20
-665.5404573254
 10
700.9192064296
 20
-667.2468624959
 10
694.3933095784
 20
-668.7659018136
 10
687.7434430406
 20
-670.0937340444
 10
680.9864023354
 20
-671.2270076125
 10
674.1392674732
 20
-672.1628575596
 10
667.2193291985
 20
-672.8989237922
 10
660.2440679168
 20
-673.433345
 10
653.2311010108
 20
-673.7647708201
 10
646.1981406935
 20
-673.8923618382
 10
639.1629676666
 20
-673.8157987116
 10
632.1433415585
 20
-673.5352730458
 10
625.1569956556
 20
-673.0514965185
 10
618.2215789508
 20
-672.3656856725
 10
611.3546139964
 20
-671.4795801641
 10
604.5734442204
 20
-670.3954123496
 10
597.8951970485
 20
-669.1159224919
 10
591.3367470252
 20
-667.6443435535
 10
584.914660496
 20
-665.9843935938
 10
578.6451587293
 20
-664.1402666443
 10
572.5440784035
 20
-662.1166159816
 10
566.6268360454
 20
-659.9185579289
 10
560.9083661274
 20
-657.5516482854
 10
555.4031362138
 20
-655.0218545743
 10
550.1250353376
 20
-652.3355767614
 10
545.0873983665
 20
-649.499600495
 10
540.302950356
 20
-646.5210893117
 10
535.7837881102
 20
-643.4075618269
 10
531.5413232176
 20
-640.1668831803
 10
527.5862576849
 20
-636.8072509701
 10
523.9286079743
 20
-633.3371361367
 10
520.5775937087
 20
-629.7653160368
 10
517.5416771851
 20
-626.1008120964
 10
514.8285528376
 20
-622.352871562
 10
512.4450379188
 20
-618.5309773855
 10
510.3971910383
 20
-614.6447706693
 10
508.6901541115
 20
-610.7040749972
 10
507.3282629956
 20
-606.7188447312
 10
506.3149368536
 20
-602.6991437226
 10
505.6527519116
 20
-598.655127063
 10
505.3433729701
 20
-594.5970137127
 10
505.3875850141
 20
-590.5350500042
 10
505.7852774083
 20
-586.479500518
 10
506.5354386283
 20
-582.4406085454
 10
507.6361773341
 20
-578.4285778397
 10
509.0847171022
 20
-574.4535391618
 10
510.8773858884
 20
-570.5255381147
 10
513.0096739799
 20
-566.6544956055
 10
515.4761813118
 20
-562.8501895978
 10
518.2706833213
 20
-559.1222292597
 10
521.3861256796
 20
-555.4800397572
 10
524.8146216579
 20
-551.9328090304
 10
528.5475272007
 20
-548.4895052815
 10
532.5754040483
 20
-545.1588252715
 10
536.8880711026
 20
-541.9491768322
 10
541.4746600742
 20
-538.8686832389
 10
546.3235545673
 20
-535.9251088864
  0
LWPOLYLINE
  5
DA
330
1F
100
AcDbEntity
  8
0
  6
Continuous
 62
     7
370
    25
100
AcDbPolyline
 90
      114
 70
   128
 43
0.0
 10
564.2840652753
 20
-546.2934910209
 10
559.9058351762
 20
-548.9655877454
 10
555.7916083264
 20
-551.7740190097
 10
551.9541035251
 20
-554.7101042102
 10
548.4051821469
 20
-557.7647696476
 10
545.1558102749
 20
-560.9285703871
 10
542.2160438836
 20
-564.1917353083
 10
539.5949550823
 20
-567.5441671052
 10
537.3006571393
 20
-570.9755129979
 10
535.3402307252
 20
-574.4751586496
 10
533.719744986
 20
-578.0322950768
 10
532.4441969576
 20
-581.6359232111
 10
531.5175510779
 20
-585.2749040818
 10
530.9426417224
 20
-588.9379907497
 10
530.7212759373
 20
-592.6138602421
 10
530.8541122671
 20
-596.2911530896
 10
531.3407555851
 20
-599.9584976577
 10
532.1796991414
 20
-603.6045618493
 10
533.3683456366
 20
-607.218077436
 10
534.9030230263
 20
-610.7878735126
 10
536.7789950586
 20
-614.3029129939
 10
538.9904533709
 20
-617.7523367138
 10
541.5305596369
 20
-621.1254816741
 10
544.3914771771
 20
-624.41191754
 10
547.5643485679
 20
-627.6014884596
 10
551.0393720327
 20
-630.6843389147
 10
554.8058073691
 20
-633.6509353909
 10
558.8520161202
 20
-636.4921078162
 10
563.1654825652
 20
-639.1990799265
 10
567.7328829492
 20
-641.7634788178
 10
572.5400981605
 20
-644.1773787609
 10
577.5722619682
 20
-646.4333229656
 10
582.8138310756
 20
-648.524333608
 10
588.248592117
 20
-650.443952366
 10
593.8597574758
 20
-652.1862409897
 10
599.6299797725
 20
-653.7458139957
 10
605.5414150851
 20
-655.1178569157
 10
611.5758085599
 20
-656.2981209736
 10
617.7144944113
 20
-657.2829656647
 10
623.9385039234
 20
-658.0693420285
 10
630.2285944256
 20
-658.6548154585
 10
636.5653309523
 20
-659.0375885126
 10
642.9291204875
 20
-659.2164659374
 10
649.3002962578
 20
-659.19090333
 10
655.6591651484
 20
-658.9609736829
 10
661.9860709228
 20
-658.5273917151
 10
668.2614574432
 20
-657.8914956238
 10
674.465931891
 20
-657.055253167
 10
680.5803095475
 20
-656.0212418951
 10
686.5856954538
 20
-654.7926689192
 10
692.4635318256
 20
-653.3733252911
 10
698.1956428346
 20
-651.7675966479
 10
703.7643109991
 20
-649.9804495259
 10
709.1523285514
 20
-648.0174077902
 10
714.3430369494
 20
-645.8845359071
 10
719.3203966831
 20
-643.5884290596
 10
724.0690230005
 20
-641.136186441
 10
728.5742336516
 20
-638.5353836917
 10
732.8221027251
 20
-635.7940600694
 10
736.7995074045
 20
-632.9206914565
 10
740.4941501944
 20
-629.9241592813
 10
743.8946066645
 20
-626.8137229559
 10
746.990371713
 20
-623.5989992518
 10
749.7718766881
 20
-620.289922002
 10
752.2305183643
 20
-616.8967192909
 10
754.3586997723
 20
-613.4298838009
 10
756.1498539061
 20
-609.9001287127
 10
757.5984252844
 20
-606.3183618541
 10
758.6999489753
 20
-602.6956583272
 10
759.4510163524
 20
-599.0432133682
 10
759.8493093392
 20
-595.3723164949
 10
759.8935898719
 20
-591.6943150111
 10
759.58373151
 20
-588.0205775102
 10
758.9206772893
 20
-584.3624573786
 10
757.9064976735
 20
-580.7312654238
 10
756.5443062613
 20
-577.1382212125
 10
754.8383203716
 20
-573.5944333021
 10
752.7938215314
 20
-570.1108520993
 10
750.4171159628
 20
-566.6982531325
 10
747.7155635594
 20
-563.3671747046
 10
744.6975041287
 20
-560.1279178925
 10
741.3722666122
 20
-556.9904971252
 10
737.7501374752
 20
-553.9646036874
 10
733.8423040718
 20
-551.059597356
 10
729.6608536571
 20
-548.2844510852
 10
725.2187031701
 20
-545.6477469673
 10
720.5295818644
 20
-543.1576357922
 10
715.6079936065
 20
-540.8218091996
 10
710.4691409786
 20
-538.6474923615
 10
705.128908733
 20
-536.6414040161
 10
699.6038111902
 20
-534.8097443502
 10
693.910920458
 20
-533.1581718089
 10
688.0678288944
 20
-531.6917996742
 10
682.0926043265
 20
-530.4151519647
 10
676.0037176108
 20
-529.3321763622
 10
669.8199794125
 20
-528.4462259631
 10
663.5605085957
 20
-527.7600349475
 10
657.2446558324
 20
-527.2757231413
 10
650.8919403817
 20
-526.9947899336
 10
644.5219921383
 20
-526.9181051527
 10
638.1545094856
 20
-527.0458969003
 10
631.8091697334
 20
-527.3777850068
 10
625.5055869713
 20
-527.9127262866
 10
619.2632435801
 20
-528.6490844896
 10
613.1014349139
 20
-529.5845709944
 10
607.0392139824
 20
-530.7163010738
 10
601.095304523
 20
-532.0407710841
 10
595.2880930984
 20
-533.5538934414
 10
589.6355131926
 20
-535.2509844555
 10
584.1550557478
 20
-537.1268069092
 10
578.8636466749
 20
-539.175555612
 10
573.7776468537
 20
-541.3908999788
 10
568.9127740951
 20
-543.765992584
 10
564.2840652753
 20
-546.2934910209
  0
LWPOLYLINE
  5
DB
330
1F
100
AcDbEntity
  8
0
  6
Continuous
 62
     7
370
    25
100
AcDbPolyline
 90
      126
 70
   128
 43
0.0
 10
667.2388168476
 20
-134.606653682
 10
670.8809578351
 20
-136.7098647936
 10
674.7639575251
 20
-138.9521311749
 10
678.8780273121
 20
-141.3278003194
 10
683.2127674612
 20
-143.8308304346
 10
687.7572197917
 20
-146.4549425218
 10
692.4999098243
 20
-149.19346221
 10
697.4288573171
 20
-152.0395205208
 10
702.5316184131
 20
-154.985883517
 10
707.7952856401
 20
-158.0251348233
 10
713.206588009
 20
-161.1495995808
 10
718.7518330625
 20
-164.3513718151
 10
724.4170227786
 20
-167.6223813699
 10
730.1878430337
 20
-170.9543269774
 10
736.049721555
 20
-174.3388435646
 10
741.9878437252
 20
-177.7673410336
 10
747.9872263398
 20
-181.2311685228
 10
754.0326807281
 20
-184.721593109
 10
760.1089760729
 20
-188.2297724398
 10
766.200739311
 20
-191.7468551019
 10
772.2925657695
 20
-195.2639836703
 10
778.3691087269
 20
-198.772236911
 10
784.4149845838
 20
-202.2627575336
 10
790.4149414492
 20
-205.7267400259
 10
796.3538064576
 20
-209.1554245672
 10
802.2166069412
 20
-212.5401426568
 10
807.9884940384
 20
-215.8723703374
 10
813.6548941593
 20
-219.1436939799
 10
819.2015300588
 20
-222.3457981143
 10
824.6143497143
 20
-225.4706433647
 10
829.8797008395
 20
-228.5103238737
 10
834.9842647012
 20
-231.4571750848
 10
839.9151647785
 20
-234.3037148118
 10
844.6599394336
 20
-237.042773459
 10
849.2066130348
 20
-239.6674134132
 10
853.5436673093
 20
-242.1710585035
 10
857.6601961014
 20
-244.5473156817
 10
861.5457535783
 20
-246.7902523802
 10
865.190560354
 20
-248.8941261833
 10
868.5853862686
 20
-250.8536821478
 10
871.7216491701
 20
-252.663966496
 10
874.5914702321
 20
-254.3203585539
 10
877.1875527813
 20
-255.8187197858
 10
879.5033429829
 20
-257.1552675658
 10
881.5330193033
 20
-258.3265934225
 10
883.2714450955
 20
-259.3297451628
 10
884.7142212821
 20
-260.1622086166
 10
885.8577021607
 20
-260.8218802601
 10
886.6990059405
 20
-261.3070611255
 10
887.2359989374
 20
-261.6165571814
 10
887.4673271838
 20
-261.749575903
 10
887.3924111606
 20
-261.705784066
 10
887.0114457969
 20
-261.4853077422
 10
886.3253741285
 20
-261.0886684155
 10
885.3359452495
 20
-260.5168894493
 10
884.0456616292
 20
-259.7714048216
 10
882.4577685749
 20
-258.8541138737
 10
880.5762805738
 20
-257.7673235206
 10
878.4059602199
 20
-256.5137847429
 10
875.9522760667
 20
-255.0966560829
 10
873.2214342377
 20
-253.5195218929
 10
870.2203362793
 20
-251.7863680038
 10
866.9565580876
 20
-249.9015817097
 10
863.4383393715
 20
-247.8698848582
 10
859.6745836526
 20
-245.696455516
 10
855.6747845086
 20
-243.3867758698
 10
851.4490466465
 20
-240.9466444036
 10
847.0080542924
 20
-238.3822671391
 10
842.3630079711
 20
-235.7001116351
 10
837.5256666536
 20
-232.9069313182
 10
832.5082213156
 20
-230.0098019791
 10
827.3233686954
 20
-227.0160426893
 10
821.9841953893
 20
-223.9332097145
 10
816.5041936573
 20
-220.7691056389
 10
810.8972034707
 20
-217.5316911497
 10
805.177391439
 20
-214.229170211
 10
799.3592033945
 20
-210.8698775139
 10
793.4573433191
 20
-207.4622967285
 10
787.4867048552
 20
-204.0150513759
 10
781.462381843
 20
-200.5368196585
 10
775.3995945632
 20
-197.0364135509
 10
769.3136475901
 20
-193.5226632045
 10
763.2199245235
 20
-190.0044443319
 10
757.1338142314
 20
-186.4906660334
 10
751.0706897769
 20
-182.9901734656
 10
745.0458715392
 20
-179.5118117179
 10
739.0745692625
 20
-176.0643984362
 10
733.1718794209
 20
-172.6566128017
 10
727.3527061938
 20
-169.2970594072
 10
721.6317482947
 20
-165.994236323
 10
716.0234581413
 20
-162.7565176046
 10
710.5420062943
 20
-159.5920415117
 10
705.2012386519
 20
-156.5087892148
 10
700.0146385838
 20
-153.5146116049
 10
694.9953144184
 20
-150.6170091441
 10
690.1559490643
 20
-147.8233157089
 10
685.5087604978
 20
-145.1405906062
 10
681.0654922138
 20
-142.5756313172
 10
676.837362518
 20
-140.1349259679
 10
672.8350569537
 20
-137.8246124611
 10
669.068685496
 20
-135.6505206833
 10
665.5477641132
 20
-133.6181436111
 10
662.2811778877
 20
-131.7326342709
 10
659.2771876019
 20
-129.9987487126
 10
656.5433849568
 20
-128.4208627372
 10
654.0866609621
 20
-127.0029719053
 10
651.9132375465
 20
-125.7486611186
 10
650.0285938001
 20
-124.6610620419
 10
648.4374923169
 20
-123.7429595657
 10
647.1439581209
 20
-122.9966640576
 10
646.1512523245
 20
-122.4240569907
 10
645.4618879335
 20
-122.026587906
 10
645.0776035055
 20
-121.8052713748
 10
644.9993736863
 20
-121.7606261644
 10
645.2273881368
 20
-121.8928212499
 10
645.7610726061
 20
-122.2014750578
 10
646.5990836633
 20
-122.6858471028
 10
647.7393034295
 20
-123.3446706931
 10
649.1788501139
 20
-124.1763293574
 10
650.9140885506
 20
-125.1786865049
 10
652.9406354676
 20
-126.3492223175
 10
655.2533700226
 20
-127.6849668213
 10
657.8464443405
 20
-129.182566819
 10
660.7133151231
 20
-130.8382311383
 10
663.8467541858
 20
-132.64778538
 10
667.2388168476
 20
-134.606653682
  0
LWPOLYLINE
  5
DC
330
1F
100
AcDbEntity
  8
0
  6
Continuous
 62
     7
370
    25
100
AcDbPolyline
 90
      114
 70
   128
 43
0.0
 10
685.1993275556
 20
-144.9750358165
 10
682.1401301666
 20
-143.2083889763
 10
679.3408576607
 20
-141.5918197589
 10
676.8101712153
 20
-140.1302813289
 10
674.5558890707
 20
-138.8283253916
 10
672.5849759938
 20
-137.6899622672
 10
670.9035222041
 20
-136.7187095521
 10
669.5167275691
 20
-135.9175829992
 10
668.4288910672
 20
-135.2890417493
 10
667.6433581047
 20
-134.835018753
 10
667.1625573936
 20
-134.5569542214
 10
666.9879851471
 20
-134.4556769974
 10
667.1201787374
 20
-134.5314927552
 10
667.5587166962
 20
-134.7842083388
 10
668.3022608609
 20
-135.2130039936
 10
669.34850896
 20
-135.8165763339
 10
670.6942156861
 20
-136.5930592437
 10
672.335234843
 20
-137.5400177943
 10
674.2664824671
 20
-138.654579034
 10
676.4820000477
 20
-139.9332677277
 10
678.9749387219
 20
-141.3721310642
 10
681.7375882506
 20
-142.9667127966
 10
684.7614086287
 20
-144.7121019081
 10
688.0370564266
 20
-146.6029234801
 10
691.5544045469
 20
-148.6332831753
 10
695.3025817369
 20
-150.7969360532
 10
699.2700048572
 20
-153.0871956933
 10
703.4444085164
 20
-155.4969573819
 10
707.8128871354
 20
-158.0188136516
 10
712.361948372
 20
-160.6449269486
 10
717.0775152611
 20
-163.3672255385
 10
721.9450271368
 20
-166.1772488489
 10
726.9494359277
 20
-169.0663217491
 10
732.0752658379
 20
-172.0255403377
 10
737.3066775548
 20
-175.0457664258
 10
742.6275038109
 20
-178.1175993969
 10
748.0212915301
 20
-181.2316012985
 10
753.4713769022
 20
-184.3781272593
 10
758.9609117245
 20
-187.547474535
 10
764.472923988
 20
-190.729820149
 10
769.9903731949
 20
-193.9153258347
 10
775.4962162134
 20
-197.0941456351
 10
780.9734309851
 20
-200.2564700146
 10
786.4050850135
 20
-203.3925349747
 10
791.7743880479
 20
-206.4926098927
 10
797.064750035
 20
-209.547146568
 10
802.2598179977
 20
-212.5466788418
 10
807.3435234499
 20
-215.4819594772
 10
812.3001666905
 20
-218.3438932462
 10
817.1144168034
 20
-221.1236281739
 10
821.7714064879
 20
-223.8126042201
 10
826.2567215216
 20
-226.4024985189
 10
830.5565113965
 20
-228.8852892634
 10
834.6574945871
 20
-231.2533074163
 10
838.546974355
 20
-233.4992580037
 10
842.2129388487
 20
-235.6161684076
 10
845.644055834
 20
-237.5975069992
 10
848.8297253787
 20
-239.4371283899
 10
851.7600851202
 20
-241.1294103126
 10
854.4260945595
 20
-242.6690589511
 10
856.8195087193
 20
-244.0513249115
 10
858.932920291
 20
-245.2719545575
 10
860.7598070498
 20
-246.3271687199
 10
862.2945265864
 20
-247.2137083295
 10
863.5323110386
 20
-247.9288313753
 10
864.4693671899
 20
-248.470322041
 10
865.1027763711
 20
-248.8364937416
 10
865.4305892904
 20
-249.0262438925
 10
865.4517891552
 20
-249.0389717721
 10
865.1663074769
 20
-248.8746484975
 10
864.5750398758
 20
-248.5337531479
 10
863.6797986666
 20
-248.0173792316
 10
862.4833602728
 20
-247.3270917268
 10
860.9894230805
 20
-246.4650365936
 10
859.2026021696
 20
-245.4338768945
 10
857.1284082404
 20
-244.23678064
 10
854.7732713215
 20
-242.8774953142
 10
852.1444591103
 20
-241.3601790556
 10
849.250116485
 20
-239.6895329878
 10
846.0991627726
 20
-237.870741901
 10
842.7013497001
 20
-235.9093982186
 10
839.0671810524
 20
-233.8115772819
 10
835.2078968672
 20
-231.5837430606
 10
831.1354062634
 20
-229.2328432111
 10
826.8623022582
 20
-226.7660742936
 10
822.4018231605
 20
-224.1910784986
 10
817.7677034921
 20
-221.5158575656
 10
812.9743206789
 20
-218.7486384885
 10
808.0364611033
 20
-215.8979574381
 10
802.9693720462
 20
-212.9726775981
 10
797.7887565013
 20
-209.9818280014
 10
792.5105907584
 20
-206.9346198727
 10
787.1512185752
 20
-203.8404888478
 10
781.7271746871
 20
-200.7090052335
 10
776.2552546133
 20
-197.5498534863
 10
770.7523618742
 20
-194.3727926629
 10
765.2354921864
 20
-191.1876473003
 10
759.7217202921
 20
-188.0042268117
 10
754.2280682495
 20
-184.8324319458
 10
748.7715212387
 20
-181.6820327403
 10
743.3689538041
 20
-178.5627476091
 10
738.0370613661
 20
-175.4842646312
 10
732.7923233425
 20
-172.4560620916
 10
727.6509451964
 20
-169.4874966841
 10
722.628832095
 20
-166.5877761474
 10
717.7414940784
 20
-163.7658436614
 10
713.0040460602
 20
-161.0304265293
 10
708.4311288018
 20
-158.3899905367
 10
704.0368720343
 20
-155.8526578318
 10
699.8348628479
 20
-153.4263225043
 10
695.8380930086
 20
-151.1184498324
 10
692.0589115432
 20
-148.9361705687
 10
688.5089931286
 20
-146.8862626921
 10
685.1993275556
 20
-144.9750358165
  0
LWPOLYLINE
  5
DD
330
1F
100
AcDbEntity
  8
0
  6
Continuous
 62
     1
370
    25
100
AcDbPolyline
 90
       17
 70
   128
 43
0.0
 10
744.3134541425
 20
-391.3891348051
 10
749.1623486356
 20
-394.3327091576
 10
753.7489376073
 20
-397.4132027509
 10
758.0616046615
 20
-400.6228511902
 10
762.0894815091
 20
-403.9535312003
 10
765.822387052
 20
-407.3968349492
 10
769.2508830302
 20
-410.9440656759
 10
772.3663253885
 20
-414.5862551784
 10
775.160827398
 20
-418.3142155165
 10
777.6273347299
 20
-422.1185215242
 10
779.7596228214
 20
-425.9895640334
 10
781.5522916076
 20
-429.9175650805
 10
783.0008313757
 20
-433.8926037584
 10
784.1015700815
 20
-437.9046344641
 10
784.8517313015
 20
-441.9435264368
 10
785.2494236957
 20
-445.9990759229
 10
785.3185023804
 20
-448.537702876
  0
LWPOLYLINE
  5
DE
330
1F
100
AcDbEntity
  8
0
  6
Continuous
 62
     1
370
    25
100
AcDbPolyline
 90
       48
 70
   128
 43
0.0
 10
505.3185063294
 20
-448.537702876
 10
505.4538925436
 20
-444.9841871845
 10
505.9398299018
 20
-440.9318432889
 10
506.7778462275
 20
-436.8987116468
 10
507.9658341781
 20
-432.8949808049
 10
509.500780254
 20
-428.9307663174
 10
511.3788174819
 20
-425.0160803321
 10
513.5951990729
 20
-421.1608103015
 10
516.1443247645
 20
-417.3746976927
 10
519.0197539915
 20
-413.6673060535
 10
522.2142216908
 20
-410.0479997227
 10
525.7196672777
 20
-406.5259210201
 10
529.5272280602
 20
-403.1099697174
 10
533.6272800687
 20
-399.8087673018
 10
538.0094861303
 20
-396.6306657205
 10
542.6627599774
 20
-393.5836829415
 10
547.575347249
 20
-390.6755170201
 10
552.7348389909
 20
-387.9135139745
 10
558.1282111686
 20
-385.3046571411
 10
563.7418394838
 20
-382.8555342897
 10
569.5615237414
 20
-380.5723235572
 10
575.5725902526
 20
-378.4608073241
 10
581.7598345419
 20
-376.5263079656
 10
588.107629348
 20
-374.7737106616
 10
594.5999562344
 20
-373.2074573144
 10
601.2203884669
 20
-371.8314834402
 10
607.9522253566
 20
-370.6492865998
 10
614.7784501136
 20
-369.663835158
 10
621.6818194085
 20
-368.8776321515
 10
628.644900251
 20
-368.2926514214
 10
635.6501016002
 20
-367.9103801912
 10
642.6797217798
 20
-367.7317795299
 10
649.7160116981
 20
-367.7573025997
 10
656.7411906535
 20
-367.9868855321
 10
663.7375148228
 20
-368.4199443864
 10
670.6873088713
 20
-369.0553873155
 10
677.573023905
 20
-369.8916115241
 10
684.3772585438
 20
-370.9264971862
 10
691.0828274102
 20
-372.1574409001
 10
697.6727927395
 20
-373.5813252745
 10
704.1305091608
 20
-375.194556946
 10
710.4396500385
 20
-376.9930635372
 10
716.584299669
 20
-378.9722921364
 10
722.5489229873
 20
-381.1272526366
 10
728.3184551294
 20
-383.4524964465
 10
733.8783317247
 20
-385.9421461433
 10
739.2144813237
 20
-388.589927597
 10
744.3134541425
 20
-391.3891348051
  0
LWPOLYLINE
  5
DF
330
1F
100
AcDbEntity
  8
0
  6
Continuous
 62
     1
370
    25
100
AcDbPolyline
 90
       21
 70
   128
 43
0.0
 10
744.3134541425
 20
-391.3891348051
 10
749.198974247
 20
-394.2094689363
 10
753.8953241488
 20
-396.9205764585
 10
758.3906556445
 20
-399.5155811757
 10
762.6735841459
 20
-401.9879476109
 10
766.7333174255
 20
-404.3314336731
 10
770.5595848233
 20
-406.5401227755
 10
774.1427307596
 20
-408.6084048252
 10
777.4736989303
 20
-410.5310887653
 10
780.5440757709
 20
-412.3033059959
 10
783.3461036271
 20
-413.9205788085
 10
785.8727018282
 20
-415.3788203863
 10
788.1174956634
 20
-416.6743576102
 10
790.0748111133
 20
-417.8038975998
 10
791.7397011916
 20
-418.7646098345
 10
793.10796175
 20
-419.5540501069
 10
794.1761420153
 20
-420.1702335242
 10
794.9415340527
 20
-420.6115979994
 10
795.402214912
 20
-420.8770285842
 10
795.5570044815
 20
-420.9658574654
 10
795.5570097498
 20
-420.9658579955
  0
LWPOLYLINE
  5
E0
330
1F
100
AcDbEntity
  8
0
  6
Continuous
 62
     1
370
    25
100
AcDbPolyline
 90
       45
 70
   128
 43
0.0
 10
553.0698952413
 20
-280.9658628323
 10
553.1073624726
 20
-280.9877631043
 10
553.41187938
 20
-281.1641197638
 10
554.021804864
 20
-281.5167876641
 10
554.9355970251
 20
-282.044897573
 10
556.1509485701
 20
-282.7471157425
 10
557.6647887885
 20
-283.6216427724
 10
559.4732909603
 20
-284.6662945069
 10
561.571891866
 20
-285.87843602
 10
563.9552895639
 20
-287.2549829024
 10
566.6174517861
 20
-288.7924815884
 10
569.5516758668
 20
-290.487013917
 10
572.7505347409
 20
-292.3343378268
 10
576.2059441161
 20
-294.3297633968
 10
579.9091795946
 20
-296.4682646398
 10
583.850895113
 20
-298.7444323538
 10
588.0211334782
 20
-301.1524923779
 10
592.4093369046
 20
-303.6863968487
 10
597.0044550154
 20
-306.3397618408
 10
601.7948552804
 20
-309.1058217464
 10
606.7684362858
 20
-311.9776315552
 10
611.9126540757
 20
-314.947942139
 10
617.214485274
 20
-318.0092215528
 10
622.6605693297
 20
-321.1537554061
 10
628.2371294916
 20
-324.373601246
 10
633.9300781758
 20
-327.6606189669
 10
639.7250433067
 20
-331.0065103642
 10
645.6073788546
 20
-334.4028252088
 10
651.5622280554
 20
-337.8409734227
 10
657.5745497524
 20
-341.3122767837
 10
663.6291605436
 20
-344.8079689298
 10
669.7107558546
 20
-348.3192075222
 10
675.803973159
 20
-351.8371411673
 10
681.8934341255
 20
-355.3528668299
 10
687.9637393494
 20
-358.8575119614
 10
693.9995684513
 20
-362.3422253717
 10
699.9856642718
 20
-365.7981985233
 10
705.9069145318
 20
-369.2167065928
 10
711.7483518316
 20
-372.5891206368
 10
717.4952300425
 20
-375.9068908603
 10
723.1330256241
 20
-379.1616690473
 10
728.6475061124
 20
-382.3452264321
 10
734.0247182663
 20
-385.4495198509
 10
739.2511069351
 20
-388.4666873757
 10
744.3134541425
 20
-391.3891348051
  0
ENDSEC
  0
SECTION
  2
OBJECTS
  0
DICTIONARY
  5
C
330
0
100
AcDbDictionary
281
     1
  3
ACAD_GROUP
350
D
  3
ACAD_LAYOUT
350
1A
  3
ACAD_MLINESTYLE
350
17
  3
ACAD_PLOTSETTINGS
350
19
  3
ACAD_PLOTSTYLENAME
350
E
  3
ACAD_SCALELIST
350
47
  0
DICTIONARY
  5
D
102
{ACAD_REACTORS
330
C
102
}
330
C
100
AcDbDictionary
281
     1
  0
DICTIONARY
  5
1A
102
{ACAD_REACTORS
330
C
102
}
330
C
100
AcDbDictionary
281
     1
  3
Layout1
350
1E
  3
Layout2
350
26
  3
Model
350
22
  0
DICTIONARY
  5
17
102
{ACAD_REACTORS
330
C
102
}
330
C
100
AcDbDictionary
281
     1
  3
Standard
350
18
  0
DICTIONARY
  5
19
102
{ACAD_REACTORS
330
C
102
}
330
C
100
AcDbDictionary
281
     1
  0
ACDBDICTIONARYWDFLT
  5
E
102
{ACAD_REACTORS
330
C
102
}
330
C
100
AcDbDictionary
281
     1
  3
Normal
350
F
100
AcDbDictionaryWithDefault
340
F
  0
DICTIONARY
  5
47
102
{ACAD_REACTORS
330
C
102
}
330
C
100
AcDbDictionary
281
     1
  3
A0
350
48
  3
A1
350
49
  3
A2
350
4A
  3
A3
350
4B
  3
A4
350
4C
  3
A5
350
4D
  3
A6
350
4E
  3
A7
350
4F
  3
A8
350
50
  3
A9
350
51
  3
B0
350
52
  3
B1
350
53
  3
B2
350
54
  3
B3
350
55
  3
B4
350
56
  3
B5
350
57
  3
B6
350
58
  3
B7
350
59
  3
B8
350
5A
  3
B9
350
5B
  3
C0
350
5C
  3
C1
350
5D
  3
C2
350
5E
  3
C3
350
5F
  3
C4
350
60
  3
C5
350
61
  3
C6
350
62
  3
C7
350
63
  3
C8
350
64
  3
C9
350
65
  3
D0
350
66
  3
D1
350
67
  3
D2
350
68
  0
LAYOUT
  5
1E
102
{ACAD_REACTORS
330
1A
102
}
330
1A
100
AcDbPlotSettings
  1

  2
none_device
  4

  6

 40
0.0
 41
0.0
 42
0.0
 43
0.0
 44
0.0
 45
0.0
 46
0.0
 47
0.0
 48
0.0
 49
0.0
140
0.0
141
0.0
142
1.0
143
1.0
 70
   688
 72
     1
 73
     0
 74
     5
  7

 75
    16
147
1.0
148
0.0
149
0.0
100
AcDbLayout
  1
Layout1
 70
     1
 71
     1
 10
0.0
 20
0.0
 11
420.0
 21
297.0
 12
0.0
 22
0.0
 32
0.0
 14
1.0000000000E+20
 24
1.0000000000E+20
 34
1.0000000000E+20
 15
-1.0000000000E+20
 25
-1.0000000000E+20
 35
-1.0000000000E+20
146
0.0
 13
0.0
 23
0.0
 33
0.0
 16
1.0
 26
0.0
 36
0.0
 17
0.0
 27
1.0
 37
0.0
 76
     0
330
1B
  0
LAYOUT
  5
26
102
{ACAD_REACTORS
330
1A
102
}
330
1A
100
AcDbPlotSettings
  1

  2
none_device
  4

  6

 40
0.0
 41
0.0
 42
0.0
 43
0.0
 44
0.0
 45
0.0
 46
0.0
 47
0.0
 48
0.0
 49
0.0
140
0.0
141
0.0
142
1.0
143
1.0
 70
   688
 72
     1
 73
     0
 74
     5
  7

 75
    16
147
1.0
148
0.0
149
0.0
100
AcDbLayout
  1
Layout2
 70
     1
 71
     2
 10
0.0
 20
0.0
 11
0.0
 21
0.0
 12
0.0
 22
0.0
 32
0.0
 14
0.0
 24
0.0
 34
0.0
 15
0.0
 25
0.0
 35
0.0
146
0.0
 13
0.0
 23
0.0
 33
0.0
 16
1.0
 26
0.0
 36
0.0
 17
0.0
 27
1.0
 37
0.0
 76
     0
330
23
  0
LAYOUT
  5
22
102
{ACAD_REACTORS
330
1A
102
}
330
1A
100
AcDbPlotSettings
  1

  2
none_device
  4
Letter_(8.50_x_11.00_Inches)
  6

 40
6.35
 41
6.35
 42
6.35000508
 43
6.35000508
 44
215.9
 45
279.4
 46
0.0
 47
0.0
 48
0.0
 49
0.0
140
0.0
141
0.0
142
1.0
143
1.0
 70
  1712
 72
     1
 73
     0
 74
     0
  7

 75
     0
147
1.0
148
0.0
149
0.0
100
AcDbLayout
  1
Model
 70
     1
 71
     0
 10
0.0
 20
0.0
 11
279.4
 21
215.9
 12
0.0
 22
0.0
 32
0.0
 14
0.0
 24
0.0
 34
0.0
 15
279.4
 25
215.9
 35
0.0
146
0.0
 13
0.0
 23
0.0
 33
0.0
 16
1.0
 26
0.0
 36
0.0
 17
0.0
 27
1.0
 37
0.0
 76
     0
330
1F
331
29
  0
MLINESTYLE
  5
18
102
{ACAD_REACTORS
330
17
102
}
330
17
100
AcDbMlineStyle
  2
Standard
 70
     0
  3

 62
   256
 51
90.0
 52
90.0
 71
     2
 49
0.5
 62
   256
  6
BYLAYER
 49
-0.5
 62
   256
  6
BYLAYER
  0
ACDBPLACEHOLDER
  5
F
102
{ACAD_REACTORS
330
E
102
}
330
E
  0
SCALE
  5
48
102
{ACAD_REACTORS
330
47
102
}
330
47
100
AcDbScale
 70
     0
300
1:1
140
1.0
141
1.0
290
     1
  0
SCALE
  5
49
102
{ACAD_REACTORS
330
47
102
}
330
47
100
AcDbScale
 70
     0
300
1:2
140
1.0
141
2.0
290
     0
  0
SCALE
  5
4A
102
{ACAD_REACTORS
330
47
102
}
330
47
100
AcDbScale
 70
     0
300
1:4
140
1.0
141
4.0
290
     0
  0
SCALE
  5
4B
102
{ACAD_REACTORS
330
47
102
}
330
47
100
AcDbScale
 70
     0
300
1:5
140
1.0
141
5.0
290
     0
  0
SCALE
  5
4C
102
{ACAD_REACTORS
330
47
102
}
330
47
100
AcDbScale
 70
     0
300
1:8
140
1.0
141
8.0
290
     0
  0
SCALE
  5
4D
102
{ACAD_REACTORS
330
47
102
}
330
47
100
AcDbScale
 70
     0
300
1:10
140
1.0
141
10.0
290
     0
  0
SCALE
  5
4E
102
{ACAD_REACTORS
330
47
102
}
330
47
100
AcDbScale
 70
     0
300
1:16
140
1.0
141
16.0
290
     0
  0
SCALE
  5
4F
102
{ACAD_REACTORS
330
47
102
}
330
47
100
AcDbScale
 70
     0
300
1:20
140
1.0
141
20.0
290
     0
  0
SCALE
  5
50
102
{ACAD_REACTORS
330
47
102
}
330
47
100
AcDbScale
 70
     0
300
1:30
140
1.0
141
30.0
290
     0
  0
SCALE
  5
51
102
{ACAD_REACTORS
330
47
102
}
330
47
100
AcDbScale
 70
     0
300
1:40
140
1.0
141
40.0
290
     0
  0
SCALE
  5
52
102
{ACAD_REACTORS
330
47
102
}
330
47
100
AcDbScale
 70
     0
300
1:50
140
1.0
141
50.0
290
     0
  0
SCALE
  5
53
102
{ACAD_REACTORS
330
47
102
}
330
47
100
AcDbScale
 70
     0
300
1:100
140
1.0
141
100.0
290
     0
  0
SCALE
  5
54
102
{ACAD_REACTORS
330
47
102
}
330
47
100
AcDbScale
 70
     0
300
2:1
140
2.0
141
1.0
290
     0
  0
SCALE
  5
55
102
{ACAD_REACTORS
330
47
102
}
330
47
100
AcDbScale
 70
     0
300
4:1
140
4.0
141
1.0
290
     0
  0
SCALE
  5
56
102
{ACAD_REACTORS
330
47
102
}
330
47
100
AcDbScale
 70
     0
300
8:1
140
8.0
141
1.0
290
     0
  0
SCALE
  5
57
102
{ACAD_REACTORS
330
47
102
}
330
47
100
AcDbScale
 70
     0
300
10:1
140
10.0
141
1.0
290
     0
  0
SCALE
  5
58
102
{ACAD_REACTORS
330
47
102
}
330
47
100
AcDbScale
 70
     0
300
100:1
140
100.0
141
1.0
290
     0
  0
SCALE
  5
59
102
{ACAD_REACTORS
330
47
102
}
330
47
100
AcDbScale
 70
     0
300
1/128" = 1'-0"
140
0.0078125
141
12.0
290
     0
  0
SCALE
  5
5A
102
{ACAD_REACTORS
330
47
102
}
330
47
100
AcDbScale
 70
     0
300
1/64" = 1'-0"
140
0.015625
141
12.0
290
     0
  0
SCALE
  5
5B
102
{ACAD_REACTORS
330
47
102
}
330
47
100
AcDbScale
 70
     0
300
1/32" = 1'-0"
140
0.03125
141
12.0
290
     0
  0
SCALE
  5
5C
102
{ACAD_REACTORS
330
47
102
}
330
47
100
AcDbScale
 70
     0
300
1/16" = 1'-0"
140
0.0625
141
12.0
290
     0
  0
SCALE
  5
5D
102
{ACAD_REACTORS
330
47
102
}
330
47
100
AcDbScale
 70
     0
300
3/32" = 1'-0"
140
0.09375
141
12.0
290
     0
  0
SCALE
  5
5E
102
{ACAD_REACTORS
330
47
102
}
330
47
100
AcDbScale
 70
     0
300
1/8" = 1'-0"
140
0.125
141
12.0
290
     0
  0
SCALE
  5
5F
102
{ACAD_REACTORS
330
47
102
}
330
47
100
AcDbScale
 70
     0
300
3/16" = 1'-0"
140
0.1875
141
12.0
290
     0
  0
SCALE
  5
60
102
{ACAD_REACTORS
330
47
102
}
330
47
100
AcDbScale
 70
     0
300
1/4" = 1'-0"
140
0.25
141
12.0
290
     0
  0
SCALE
  5
61
102
{ACAD_REACTORS
330
47
102
}
330
47
100
AcDbScale
 70
     0
300
3/8" = 1'-0"
140
0.375
141
12.0
290
     0
  0
SCALE
  5
62
102
{ACAD_REACTORS
330
47
102
}
330
47
100
AcDbScale
 70
     0
300
1/2" = 1'-0"
140
0.5
141
12.0
290
     0
  0
SCALE
  5
63
102
{ACAD_REACTORS
330
47
102
}
330
47
100
AcDbScale
 70
     0
300
3/4" = 1'-0"
140
0.75
141
12.0
290
     0
  0
SCALE
  5
64
102
{ACAD_REACTORS
330
47
102
}
330
47
100
AcDbScale
 70
     0
300
1" = 1'-0"
140
1.0
141
12.0
290
     0
  0
SCALE
  5
65
102
{ACAD_REACTORS
330
47
102
}
330
47
100
AcDbScale
 70
     0
300
1-1/2" = 1'-0"
140
1.5
141
12.0
290
     0
  0
SCALE
  5
66
102
{ACAD_REACTORS
330
47
102
}
330
47
100
AcDbScale
 70
     0
300
3" = 1'-0"
140
3.0
141
12.0
290
     0
  0
SCALE
  5
67
102
{ACAD_REACTORS
330
47
102
}
330
47
100
AcDbScale
 70
     0
300
6" = 1'-0"
140
6.0
141
12.0
290
     0
  0
SCALE
  5
68
102
{ACAD_REACTORS
330
47
102
}
330
47
100
AcDbScale
 70
     0
300
1'-0" = 1'-0"
140
12.0
141
12.0
290
     0
  0
ENDSEC
  0
EOF
